  0
SECTION
  2
HEADER
  9
$ACADVER
  1
AC1018
  9
$ACADMAINTVER
 70
     0
  9
$DWGCODEPAGE
  3
ANSI_1252
  9
$INSBASE
 10
0.0
 20
0.0
 30
0.0
  9
$EXTMIN
 10
1.000000000000000E+20
 20
1.000000000000000E+20
 30
1.000000000000000E+20
  9
$EXTMAX
 10
-1.000000000000000E+20
 20
-1.000000000000000E+20
 30
-1.000000000000000E+20
  9
$LIMMIN
 10
0.0
 20
0.0
  9
$LIMMAX
 10
12.0
 20
9.0
  9
$ORTHOMODE
 70
     0
  9
$REGENMODE
 70
     1
  9
$FILLMODE
 70
     1
  9
$QTEXTMODE
 70
     0
  9
$MIRRTEXT
 70
     1
  9
$LTSCALE
 40
1.0
  9
$ATTMODE
 70
     1
  9
$TEXTSIZE
 40
0.2
  9
$TRACEWID
 40
0.05
  9
$TEXTSTYLE
  7
Standard
  9
$CLAYER
  8
0
  9
$CELTYPE
  6
ByLayer
  9
$CECOLOR
 62
   256
  9
$CELTSCALE
 40
1.0
  9
$DISPSILH
 70
     0
  9
$DIMSCALE
 40
1.0
  9
$DIMASZ
 40
0.18
  9
$DIMEXO
 40
0.0625
  9
$DIMDLI
 40
0.38
  9
$DIMRND
 40
0.0
  9
$DIMDLE
 40
0.0
  9
$DIMEXE
 40
0.18
  9
$DIMTP
 40
0.0
  9
$DIMTM
 40
0.0
  9
$DIMTXT
 40
0.18
  9
$DIMCEN
 40
0.09
  9
$DIMTSZ
 40
0.0
  9
$DIMTOL
 70
     0
  9
$DIMLIM
 70
     0
  9
$DIMTIH
 70
     1
  9
$DIMTOH
 70
     1
  9
$DIMSE1
 70
     0
  9
$DIMSE2
 70
     0
  9
$DIMTAD
 70
     0
  9
$DIMZIN
 70
     0
  9
$DIMBLK
  1

  9
$DIMASO
 70
     1
  9
$DIMSHO
 70
     1
  9
$DIMPOST
  1

  9
$DIMAPOST
  1

  9
$DIMALT
 70
     0
  9
$DIMALTD
 70
     2
  9
$DIMALTF
 40
25.4
  9
$DIMLFAC
 40
1.0
  9
$DIMTOFL
 70
     0
  9
$DIMTVP
 40
0.0
  9
$DIMTIX
 70
     0
  9
$DIMSOXD
 70
     0
  9
$DIMSAH
 70
     0
  9
$DIMBLK1
  1

  9
$DIMBLK2
  1

  9
$DIMSTYLE
  2
Standard
  9
$DIMCLRD
 70
     0
  9
$DIMCLRE
 70
     0
  9
$DIMCLRT
 70
     0
  9
$DIMTFAC
 40
1.0
  9
$DIMGAP
 40
0.09
  9
$DIMJUST
 70
     0
  9
$DIMSD1
 70
     0
  9
$DIMSD2
 70
     0
  9
$DIMTOLJ
 70
     1
  9
$DIMTZIN
 70
     0
  9
$DIMALTZ
 70
     0
  9
$DIMALTTZ
 70
     0
  9
$DIMUPT
 70
     0
  9
$DIMDEC
 70
     4
  9
$DIMTDEC
 70
     4
  9
$DIMALTU
 70
     2
  9
$DIMALTTD
 70
     2
  9
$DIMTXSTY
  7
Standard
  9
$DIMAUNIT
 70
     0
  9
$DIMADEC
 70
     0
  9
$DIMALTRND
 40
0.0
  9
$DIMAZIN
 70
     0
  9
$DIMDSEP
 70
    46
  9
$DIMATFIT
 70
     3
  9
$DIMFRAC
 70
     0
  9
$DIMLDRBLK
  1

  9
$DIMLUNIT
 70
     2
  9
$DIMLWD
 70
    -2
  9
$DIMLWE
 70
    -2
  9
$DIMTMOVE
 70
     0
  9
$LUNITS
 70
     2
  9
$LUPREC
 70
     4
  9
$SKETCHINC
 40
0.1
  9
$FILLETRAD
 40
0.5
  9
$AUNITS
 70
     0
  9
$AUPREC
 70
     0
  9
$MENU
  1
.
  9
$ELEVATION
 40
0.0
  9
$PELEVATION
 40
0.0
  9
$THICKNESS
 40
0.0
  9
$LIMCHECK
 70
     0
  9
$CHAMFERA
 40
0.5
  9
$CHAMFERB
 40
0.5
  9
$CHAMFERC
 40
1.0
  9
$CHAMFERD
 40
0.0
  9
$SKPOLY
 70
     0
  9
$TDCREATE
 40
2457770.660325231
  9
$TDUCREATE
 40
2457770.618658565
  9
$TDUPDATE
 40
2457770.660325243
  9
$TDUUPDATE
 40
2457770.618658576
  9
$TDINDWG
 40
0.0000000116
  9
$TDUSRTIMER
 40
0.0000000116
  9
$USRTIMER
 70
     1
  9
$ANGBASE
 50
0.0
  9
$ANGDIR
 70
     0
  9
$PDMODE
 70
     0
  9
$PDSIZE
 40
0.0
  9
$PLINEWID
 40
0.0
  9
$SPLFRAME
 70
     0
  9
$SPLINETYPE
 70
     6
  9
$SPLINESEGS
 70
     8
  9
$HANDSEED
  5
6AC
  9
$SURFTAB1
 70
     6
  9
$SURFTAB2
 70
     6
  9
$SURFTYPE
 70
     6
  9
$SURFU
 70
     6
  9
$SURFV
 70
     6
  9
$UCSBASE
  2

  9
$UCSNAME
  2

  9
$UCSORG
 10
0.0
 20
0.0
 30
0.0
  9
$UCSXDIR
 10
1.0
 20
0.0
 30
0.0
  9
$UCSYDIR
 10
0.0
 20
1.0
 30
0.0
  9
$UCSORTHOREF
  2

  9
$UCSORTHOVIEW
 70
     0
  9
$UCSORGTOP
 10
0.0
 20
0.0
 30
0.0
  9
$UCSORGBOTTOM
 10
0.0
 20
0.0
 30
0.0
  9
$UCSORGLEFT
 10
0.0
 20
0.0
 30
0.0
  9
$UCSORGRIGHT
 10
0.0
 20
0.0
 30
0.0
  9
$UCSORGFRONT
 10
0.0
 20
0.0
 30
0.0
  9
$UCSORGBACK
 10
0.0
 20
0.0
 30
0.0
  9
$PUCSBASE
  2

  9
$PUCSNAME
  2

  9
$PUCSORG
 10
0.0
 20
0.0
 30
0.0
  9
$PUCSXDIR
 10
1.0
 20
0.0
 30
0.0
  9
$PUCSYDIR
 10
0.0
 20
1.0
 30
0.0
  9
$PUCSORTHOREF
  2

  9
$PUCSORTHOVIEW
 70
     0
  9
$PUCSORGTOP
 10
0.0
 20
0.0
 30
0.0
  9
$PUCSORGBOTTOM
 10
0.0
 20
0.0
 30
0.0
  9
$PUCSORGLEFT
 10
0.0
 20
0.0
 30
0.0
  9
$PUCSORGRIGHT
 10
0.0
 20
0.0
 30
0.0
  9
$PUCSORGFRONT
 10
0.0
 20
0.0
 30
0.0
  9
$PUCSORGBACK
 10
0.0
 20
0.0
 30
0.0
  9
$USERI1
 70
     0
  9
$USERI2
 70
     0
  9
$USERI3
 70
     0
  9
$USERI4
 70
     0
  9
$USERI5
 70
     0
  9
$USERR1
 40
0.0
  9
$USERR2
 40
0.0
  9
$USERR3
 40
0.0
  9
$USERR4
 40
0.0
  9
$USERR5
 40
0.0
  9
$WORLDVIEW
 70
     1
  9
$SHADEDGE
 70
     3
  9
$SHADEDIF
 70
    70
  9
$TILEMODE
 70
     1
  9
$MAXACTVP
 70
    64
  9
$PINSBASE
 10
0.0
 20
0.0
 30
0.0
  9
$PLIMCHECK
 70
     0
  9
$PEXTMIN
 10
1.000000000000000E+20
 20
1.000000000000000E+20
 30
1.000000000000000E+20
  9
$PEXTMAX
 10
-1.000000000000000E+20
 20
-1.000000000000000E+20
 30
-1.000000000000000E+20
  9
$PLIMMIN
 10
0.0
 20
0.0
  9
$PLIMMAX
 10
12.0
 20
9.0
  9
$UNITMODE
 70
     0
  9
$VISRETAIN
 70
     1
  9
$PLINEGEN
 70
     0
  9
$PSLTSCALE
 70
     1
  9
$TREEDEPTH
 70
  3020
  9
$CMLSTYLE
  2
Standard
  9
$CMLJUST
 70
     0
  9
$CMLSCALE
 40
1.0
  9
$PROXYGRAPHICS
 70
     1
  9
$MEASUREMENT
 70
     0
  9
$CELWEIGHT
370
    -1
  9
$ENDCAPS
280
     0
  9
$JOINSTYLE
280
     0
  9
$LWDISPLAY
290
     1
  9
$INSUNITS
 70
     1
  9
$HYPERLINKBASE
  1

  9
$STYLESHEET
  1

  9
$XEDIT
290
     1
  9
$CEPSNTYPE
380
     0
  9
$PSTYLEMODE
290
     1
  9
$FINGERPRINTGUID
  2
{B351658B-171B-45D2-971D-BC74A5F7D48A}
  9
$VERSIONGUID
  2
{FAEB1C32-E019-11D5-929B-00C0DF256EC4}
  9
$EXTNAMES
290
     1
  9
$PSVPSCALE
 40
0.0
  9
$OLESTARTUP
290
     0
  9
$SORTENTS
280
   127
  9
$INDEXCTL
280
     0
  9
$HIDETEXT
280
     1
  9
$XCLIPFRAME
290
     0
  9
$HALOGAP
280
     0
  9
$OBSCOLOR
 70
   257
  9
$OBSLTYPE
280
     0
  9
$INTERSECTIONDISPLAY
280
     0
  9
$INTERSECTIONCOLOR
 70
   257
  9
$DIMASSOC
280
     2
  9
$PROJECTNAME
  1

  0
ENDSEC
  0
SECTION
  2
CLASSES
  0
CLASS
  1
ACDBDICTIONARYWDFLT
  2
AcDbDictionaryWithDefault
  3
ObjectDBX Classes
 90
        0
 91
        3
280
     0
281
     0
  0
CLASS
  1
VISUALSTYLE
  2
AcDbVisualStyle
  3
ObjectDBX Classes
 90
     4095
 91
        3
280
     0
281
     0
  0
ENDSEC
  0
SECTION
  2
TABLES
  0
TABLE
  2
VPORT
  5
8
330
0
100
AcDbSymbolTable
 70
     1
  0
VPORT
  5
29
330
8
100
AcDbSymbolTableRecord
100
AcDbViewportTableRecord
  2
*Active
 70
     0
 10
0.0
 20
0.0
 11
1.0
 21
1.0
 12
0.0
 22
0.0
 13
0.0
 23
0.0
 14
0.5
 24
0.5
 15
0.5
 25
0.5
 16
0.0
 26
0.0
 36
1.0
 17
208.8445821658439
 27
154.163990551476
 37
0.0
 40
51.50558952063042
 41
0.8767123287671234
 42
50.0
 43
0.0
 44
0.0
 50
0.0
 51
0.0
 71
     0
 72
   100
 73
     1
 74
     3
 75
     0
 76
     0
 77
     0
 78
     0
281
     0
 65
     1
110
0.0
120
0.0
130
0.0
111
1.0
121
0.0
131
0.0
112
0.0
122
1.0
132
0.0
 79
     0
146
0.0
  0
ENDTAB
  0
TABLE
  2
LTYPE
  5
5
330
0
100
AcDbSymbolTable
 70
     1
  0
LTYPE
  5
14
330
5
100
AcDbSymbolTableRecord
100
AcDbLinetypeTableRecord
  2
ByBlock
 70
     0
  3

 72
    65
 73
     0
 40
0.0
  0
LTYPE
  5
15
330
5
100
AcDbSymbolTableRecord
100
AcDbLinetypeTableRecord
  2
ByLayer
 70
     0
  3

 72
    65
 73
     0
 40
0.0
  0
LTYPE
  5
16
330
5
100
AcDbSymbolTableRecord
100
AcDbLinetypeTableRecord
  2
Continuous
 70
     0
  3
Solid line
 72
    65
 73
     0
 40
0.0
  0
ENDTAB
  0
TABLE
  2
LAYER
  5
2
330
0
100
AcDbSymbolTable
 70
     2
  0
LAYER
  5
10
330
2
100
AcDbSymbolTableRecord
100
AcDbLayerTableRecord
  2
0
 70
     0
 62
     7
  6
Continuous
370
    -3
390
F
  0
LAYER
  5
3B
330
2
100
AcDbSymbolTableRecord
100
AcDbLayerTableRecord
  2
Livello 2
 70
     1
 62
     7
  6
Continuous
370
    -3
390
F
  0
ENDTAB
  0
TABLE
  2
STYLE
  5
3
330
0
100
AcDbSymbolTable
 70
     1
  0
STYLE
  5
11
330
3
100
AcDbSymbolTableRecord
100
AcDbTextStyleTableRecord
  2
Standard
 70
     0
 40
0.0
 41
1.0
 50
0.0
 71
     0
 42
0.2
  3
txt
  4

  0
ENDTAB
  0
TABLE
  2
VIEW
  5
6
330
0
100
AcDbSymbolTable
 70
     0
  0
ENDTAB
  0
TABLE
  2
UCS
  5
7
330
0
100
AcDbSymbolTable
 70
     0
  0
ENDTAB
  0
TABLE
  2
APPID
  5
9
330
0
100
AcDbSymbolTable
 70
     1
  0
APPID
  5
12
330
9
100
AcDbSymbolTableRecord
100
AcDbRegAppTableRecord
  2
ACAD
 70
     0
  0
ENDTAB
  0
TABLE
  2
DIMSTYLE
  5
A
330
0
100
AcDbSymbolTable
 70
     1
100
AcDbDimStyleTable
  0
DIMSTYLE
105
27
330
A
100
AcDbSymbolTableRecord
100
AcDbDimStyleTableRecord
  2
Standard
 70
     0
340
11
  0
ENDTAB
  0
TABLE
  2
BLOCK_RECORD
  5
1
330
0
100
AcDbSymbolTable
 70
   204
  0
BLOCK_RECORD
  5
1F
330
1
100
AcDbSymbolTableRecord
100
AcDbBlockTableRecord
  2
*Model_Space
340
22
  0
BLOCK_RECORD
  5
1B
330
1
100
AcDbSymbolTableRecord
100
AcDbBlockTableRecord
  2
*Paper_Space
340
1E
  0
BLOCK_RECORD
  5
23
330
1
100
AcDbSymbolTableRecord
100
AcDbBlockTableRecord
  2
*Paper_Space0
340
26
  0
BLOCK_RECORD
  5
3C
330
1
100
AcDbSymbolTableRecord
100
AcDbBlockTableRecord
  2
block 2
340
0
102
{BLKREFS
331
3D
102
}
  0
BLOCK_RECORD
  5
44
330
1
100
AcDbSymbolTableRecord
100
AcDbBlockTableRecord
  2
block 3
340
0
102
{BLKREFS
331
45
102
}
  0
BLOCK_RECORD
  5
4C
330
1
100
AcDbSymbolTableRecord
100
AcDbBlockTableRecord
  2
block 4
340
0
102
{BLKREFS
331
4D
102
}
  0
BLOCK_RECORD
  5
54
330
1
100
AcDbSymbolTableRecord
100
AcDbBlockTableRecord
  2
block 5
340
0
102
{BLKREFS
331
55
102
}
  0
BLOCK_RECORD
  5
5C
330
1
100
AcDbSymbolTableRecord
100
AcDbBlockTableRecord
  2
block 6
340
0
102
{BLKREFS
331
5D
102
}
  0
BLOCK_RECORD
  5
64
330
1
100
AcDbSymbolTableRecord
100
AcDbBlockTableRecord
  2
block 7
340
0
102
{BLKREFS
331
65
102
}
  0
BLOCK_RECORD
  5
6C
330
1
100
AcDbSymbolTableRecord
100
AcDbBlockTableRecord
  2
block 8
340
0
102
{BLKREFS
331
6D
102
}
  0
BLOCK_RECORD
  5
74
330
1
100
AcDbSymbolTableRecord
100
AcDbBlockTableRecord
  2
block 9
340
0
102
{BLKREFS
331
75
102
}
  0
BLOCK_RECORD
  5
7C
330
1
100
AcDbSymbolTableRecord
100
AcDbBlockTableRecord
  2
block 10
340
0
102
{BLKREFS
331
7D
102
}
  0
BLOCK_RECORD
  5
84
330
1
100
AcDbSymbolTableRecord
100
AcDbBlockTableRecord
  2
block 11
340
0
102
{BLKREFS
331
85
102
}
  0
BLOCK_RECORD
  5
8C
330
1
100
AcDbSymbolTableRecord
100
AcDbBlockTableRecord
  2
block 12
340
0
102
{BLKREFS
331
8D
102
}
  0
BLOCK_RECORD
  5
94
330
1
100
AcDbSymbolTableRecord
100
AcDbBlockTableRecord
  2
block 13
340
0
102
{BLKREFS
331
95
102
}
  0
BLOCK_RECORD
  5
9C
330
1
100
AcDbSymbolTableRecord
100
AcDbBlockTableRecord
  2
block 14
340
0
102
{BLKREFS
331
9D
102
}
  0
BLOCK_RECORD
  5
A4
330
1
100
AcDbSymbolTableRecord
100
AcDbBlockTableRecord
  2
block 15
340
0
102
{BLKREFS
331
A5
102
}
  0
BLOCK_RECORD
  5
BB
330
1
100
AcDbSymbolTableRecord
100
AcDbBlockTableRecord
  2
block 16
340
0
102
{BLKREFS
331
BC
102
}
  0
BLOCK_RECORD
  5
C3
330
1
100
AcDbSymbolTableRecord
100
AcDbBlockTableRecord
  2
block 17
340
0
102
{BLKREFS
331
C4
102
}
  0
BLOCK_RECORD
  5
CB
330
1
100
AcDbSymbolTableRecord
100
AcDbBlockTableRecord
  2
block 18
340
0
102
{BLKREFS
331
CC
102
}
  0
BLOCK_RECORD
  5
D3
330
1
100
AcDbSymbolTableRecord
100
AcDbBlockTableRecord
  2
block 19
340
0
102
{BLKREFS
331
D4
102
}
  0
BLOCK_RECORD
  5
DB
330
1
100
AcDbSymbolTableRecord
100
AcDbBlockTableRecord
  2
block 20
340
0
102
{BLKREFS
331
DC
102
}
  0
BLOCK_RECORD
  5
E3
330
1
100
AcDbSymbolTableRecord
100
AcDbBlockTableRecord
  2
block 21
340
0
102
{BLKREFS
331
E4
102
}
  0
BLOCK_RECORD
  5
EB
330
1
100
AcDbSymbolTableRecord
100
AcDbBlockTableRecord
  2
block 22
340
0
102
{BLKREFS
331
EC
102
}
  0
BLOCK_RECORD
  5
F3
330
1
100
AcDbSymbolTableRecord
100
AcDbBlockTableRecord
  2
block 23
340
0
102
{BLKREFS
331
F4
102
}
  0
BLOCK_RECORD
  5
FB
330
1
100
AcDbSymbolTableRecord
100
AcDbBlockTableRecord
  2
block 24
340
0
102
{BLKREFS
331
FC
102
}
  0
BLOCK_RECORD
  5
103
330
1
100
AcDbSymbolTableRecord
100
AcDbBlockTableRecord
  2
block 25
340
0
102
{BLKREFS
331
104
102
}
  0
BLOCK_RECORD
  5
10B
330
1
100
AcDbSymbolTableRecord
100
AcDbBlockTableRecord
  2
block 26
340
0
102
{BLKREFS
331
10C
102
}
  0
BLOCK_RECORD
  5
113
330
1
100
AcDbSymbolTableRecord
100
AcDbBlockTableRecord
  2
block 27
340
0
102
{BLKREFS
331
114
102
}
  0
BLOCK_RECORD
  5
11B
330
1
100
AcDbSymbolTableRecord
100
AcDbBlockTableRecord
  2
block 28
340
0
102
{BLKREFS
331
11C
102
}
  0
BLOCK_RECORD
  5
123
330
1
100
AcDbSymbolTableRecord
100
AcDbBlockTableRecord
  2
block 29
340
0
102
{BLKREFS
331
124
102
}
  0
BLOCK_RECORD
  5
12B
330
1
100
AcDbSymbolTableRecord
100
AcDbBlockTableRecord
  2
block 30
340
0
102
{BLKREFS
331
12C
102
}
  0
BLOCK_RECORD
  5
133
330
1
100
AcDbSymbolTableRecord
100
AcDbBlockTableRecord
  2
block 31
340
0
102
{BLKREFS
331
134
102
}
  0
BLOCK_RECORD
  5
13B
330
1
100
AcDbSymbolTableRecord
100
AcDbBlockTableRecord
  2
block 32
340
0
102
{BLKREFS
331
13C
102
}
  0
BLOCK_RECORD
  5
143
330
1
100
AcDbSymbolTableRecord
100
AcDbBlockTableRecord
  2
block 33
340
0
102
{BLKREFS
331
144
102
}
  0
BLOCK_RECORD
  5
14B
330
1
100
AcDbSymbolTableRecord
100
AcDbBlockTableRecord
  2
block 34
340
0
102
{BLKREFS
331
14C
102
}
  0
BLOCK_RECORD
  5
153
330
1
100
AcDbSymbolTableRecord
100
AcDbBlockTableRecord
  2
block 35
340
0
102
{BLKREFS
331
154
102
}
  0
BLOCK_RECORD
  5
15B
330
1
100
AcDbSymbolTableRecord
100
AcDbBlockTableRecord
  2
block 36
340
0
102
{BLKREFS
331
15C
102
}
  0
BLOCK_RECORD
  5
163
330
1
100
AcDbSymbolTableRecord
100
AcDbBlockTableRecord
  2
block 37
340
0
102
{BLKREFS
331
164
102
}
  0
BLOCK_RECORD
  5
16B
330
1
100
AcDbSymbolTableRecord
100
AcDbBlockTableRecord
  2
block 38
340
0
102
{BLKREFS
331
16C
102
}
  0
BLOCK_RECORD
  5
173
330
1
100
AcDbSymbolTableRecord
100
AcDbBlockTableRecord
  2
block 39
340
0
102
{BLKREFS
331
174
102
}
  0
BLOCK_RECORD
  5
17B
330
1
100
AcDbSymbolTableRecord
100
AcDbBlockTableRecord
  2
block 40
340
0
102
{BLKREFS
331
17C
102
}
  0
BLOCK_RECORD
  5
183
330
1
100
AcDbSymbolTableRecord
100
AcDbBlockTableRecord
  2
block 41
340
0
102
{BLKREFS
331
184
102
}
  0
BLOCK_RECORD
  5
18B
330
1
100
AcDbSymbolTableRecord
100
AcDbBlockTableRecord
  2
block 42
340
0
102
{BLKREFS
331
18C
102
}
  0
BLOCK_RECORD
  5
193
330
1
100
AcDbSymbolTableRecord
100
AcDbBlockTableRecord
  2
block 43
340
0
102
{BLKREFS
331
194
102
}
  0
BLOCK_RECORD
  5
19B
330
1
100
AcDbSymbolTableRecord
100
AcDbBlockTableRecord
  2
block 44
340
0
102
{BLKREFS
331
19C
102
}
  0
BLOCK_RECORD
  5
1A3
330
1
100
AcDbSymbolTableRecord
100
AcDbBlockTableRecord
  2
block 45
340
0
102
{BLKREFS
331
1A4
102
}
  0
BLOCK_RECORD
  5
1AB
330
1
100
AcDbSymbolTableRecord
100
AcDbBlockTableRecord
  2
block 46
340
0
102
{BLKREFS
331
1AC
102
}
  0
BLOCK_RECORD
  5
1B3
330
1
100
AcDbSymbolTableRecord
100
AcDbBlockTableRecord
  2
block 47
340
0
102
{BLKREFS
331
1B4
102
}
  0
BLOCK_RECORD
  5
1BB
330
1
100
AcDbSymbolTableRecord
100
AcDbBlockTableRecord
  2
block 48
340
0
102
{BLKREFS
331
1BC
102
}
  0
BLOCK_RECORD
  5
1C3
330
1
100
AcDbSymbolTableRecord
100
AcDbBlockTableRecord
  2
block 49
340
0
102
{BLKREFS
331
1C4
102
}
  0
BLOCK_RECORD
  5
1CB
330
1
100
AcDbSymbolTableRecord
100
AcDbBlockTableRecord
  2
block 50
340
0
102
{BLKREFS
331
1CC
102
}
  0
BLOCK_RECORD
  5
1D3
330
1
100
AcDbSymbolTableRecord
100
AcDbBlockTableRecord
  2
block 51
340
0
102
{BLKREFS
331
1D4
102
}
  0
BLOCK_RECORD
  5
1DB
330
1
100
AcDbSymbolTableRecord
100
AcDbBlockTableRecord
  2
block 52
340
0
102
{BLKREFS
331
1DC
102
}
  0
BLOCK_RECORD
  5
1E3
330
1
100
AcDbSymbolTableRecord
100
AcDbBlockTableRecord
  2
block 53
340
0
102
{BLKREFS
331
1E4
102
}
  0
BLOCK_RECORD
  5
1EB
330
1
100
AcDbSymbolTableRecord
100
AcDbBlockTableRecord
  2
block 54
340
0
102
{BLKREFS
331
1EC
102
}
  0
BLOCK_RECORD
  5
1F3
330
1
100
AcDbSymbolTableRecord
100
AcDbBlockTableRecord
  2
block 55
340
0
102
{BLKREFS
331
1F4
102
}
  0
BLOCK_RECORD
  5
1FB
330
1
100
AcDbSymbolTableRecord
100
AcDbBlockTableRecord
  2
block 56
340
0
102
{BLKREFS
331
1FC
102
}
  0
BLOCK_RECORD
  5
203
330
1
100
AcDbSymbolTableRecord
100
AcDbBlockTableRecord
  2
block 57
340
0
102
{BLKREFS
331
204
102
}
  0
BLOCK_RECORD
  5
20B
330
1
100
AcDbSymbolTableRecord
100
AcDbBlockTableRecord
  2
block 58
340
0
102
{BLKREFS
331
20C
102
}
  0
BLOCK_RECORD
  5
213
330
1
100
AcDbSymbolTableRecord
100
AcDbBlockTableRecord
  2
block 59
340
0
102
{BLKREFS
331
214
102
}
  0
BLOCK_RECORD
  5
21B
330
1
100
AcDbSymbolTableRecord
100
AcDbBlockTableRecord
  2
block 60
340
0
102
{BLKREFS
331
21C
102
}
  0
BLOCK_RECORD
  5
223
330
1
100
AcDbSymbolTableRecord
100
AcDbBlockTableRecord
  2
block 61
340
0
102
{BLKREFS
331
224
102
}
  0
BLOCK_RECORD
  5
22B
330
1
100
AcDbSymbolTableRecord
100
AcDbBlockTableRecord
  2
block 62
340
0
102
{BLKREFS
331
22C
102
}
  0
BLOCK_RECORD
  5
233
330
1
100
AcDbSymbolTableRecord
100
AcDbBlockTableRecord
  2
block 63
340
0
102
{BLKREFS
331
234
102
}
  0
BLOCK_RECORD
  5
23B
330
1
100
AcDbSymbolTableRecord
100
AcDbBlockTableRecord
  2
block 64
340
0
102
{BLKREFS
331
23C
102
}
  0
BLOCK_RECORD
  5
243
330
1
100
AcDbSymbolTableRecord
100
AcDbBlockTableRecord
  2
block 65
340
0
102
{BLKREFS
331
244
102
}
  0
BLOCK_RECORD
  5
24B
330
1
100
AcDbSymbolTableRecord
100
AcDbBlockTableRecord
  2
block 66
340
0
102
{BLKREFS
331
24C
102
}
  0
BLOCK_RECORD
  5
253
330
1
100
AcDbSymbolTableRecord
100
AcDbBlockTableRecord
  2
block 67
340
0
102
{BLKREFS
331
254
102
}
  0
BLOCK_RECORD
  5
25B
330
1
100
AcDbSymbolTableRecord
100
AcDbBlockTableRecord
  2
block 68
340
0
102
{BLKREFS
331
25C
102
}
  0
BLOCK_RECORD
  5
263
330
1
100
AcDbSymbolTableRecord
100
AcDbBlockTableRecord
  2
block 69
340
0
102
{BLKREFS
331
264
102
}
  0
BLOCK_RECORD
  5
26B
330
1
100
AcDbSymbolTableRecord
100
AcDbBlockTableRecord
  2
block 70
340
0
102
{BLKREFS
331
26C
102
}
  0
BLOCK_RECORD
  5
273
330
1
100
AcDbSymbolTableRecord
100
AcDbBlockTableRecord
  2
block 71
340
0
102
{BLKREFS
331
274
102
}
  0
BLOCK_RECORD
  5
27B
330
1
100
AcDbSymbolTableRecord
100
AcDbBlockTableRecord
  2
block 72
340
0
102
{BLKREFS
331
27C
102
}
  0
BLOCK_RECORD
  5
283
330
1
100
AcDbSymbolTableRecord
100
AcDbBlockTableRecord
  2
block 73
340
0
102
{BLKREFS
331
284
102
}
  0
BLOCK_RECORD
  5
28B
330
1
100
AcDbSymbolTableRecord
100
AcDbBlockTableRecord
  2
block 74
340
0
102
{BLKREFS
331
28C
102
}
  0
BLOCK_RECORD
  5
293
330
1
100
AcDbSymbolTableRecord
100
AcDbBlockTableRecord
  2
block 75
340
0
102
{BLKREFS
331
294
102
}
  0
BLOCK_RECORD
  5
29B
330
1
100
AcDbSymbolTableRecord
100
AcDbBlockTableRecord
  2
block 76
340
0
102
{BLKREFS
331
29C
102
}
  0
BLOCK_RECORD
  5
2A3
330
1
100
AcDbSymbolTableRecord
100
AcDbBlockTableRecord
  2
block 77
340
0
102
{BLKREFS
331
2A4
102
}
  0
BLOCK_RECORD
  5
2AB
330
1
100
AcDbSymbolTableRecord
100
AcDbBlockTableRecord
  2
block 78
340
0
102
{BLKREFS
331
2AC
102
}
  0
BLOCK_RECORD
  5
2B3
330
1
100
AcDbSymbolTableRecord
100
AcDbBlockTableRecord
  2
block 79
340
0
102
{BLKREFS
331
2B4
102
}
  0
BLOCK_RECORD
  5
2BB
330
1
100
AcDbSymbolTableRecord
100
AcDbBlockTableRecord
  2
block 80
340
0
102
{BLKREFS
331
2BC
102
}
  0
BLOCK_RECORD
  5
2C3
330
1
100
AcDbSymbolTableRecord
100
AcDbBlockTableRecord
  2
block 81
340
0
102
{BLKREFS
331
2C4
102
}
  0
BLOCK_RECORD
  5
2CB
330
1
100
AcDbSymbolTableRecord
100
AcDbBlockTableRecord
  2
block 82
340
0
102
{BLKREFS
331
2CC
102
}
  0
BLOCK_RECORD
  5
2D3
330
1
100
AcDbSymbolTableRecord
100
AcDbBlockTableRecord
  2
block 83
340
0
102
{BLKREFS
331
2D4
102
}
  0
BLOCK_RECORD
  5
2DE
330
1
100
AcDbSymbolTableRecord
100
AcDbBlockTableRecord
  2
block 84
340
0
102
{BLKREFS
331
2DF
102
}
  0
BLOCK_RECORD
  5
2E6
330
1
100
AcDbSymbolTableRecord
100
AcDbBlockTableRecord
  2
block 85
340
0
102
{BLKREFS
331
2E7
102
}
  0
BLOCK_RECORD
  5
2F8
330
1
100
AcDbSymbolTableRecord
100
AcDbBlockTableRecord
  2
block 86
340
0
102
{BLKREFS
331
2F9
102
}
  0
BLOCK_RECORD
  5
300
330
1
100
AcDbSymbolTableRecord
100
AcDbBlockTableRecord
  2
block 87
340
0
102
{BLKREFS
331
301
102
}
  0
BLOCK_RECORD
  5
308
330
1
100
AcDbSymbolTableRecord
100
AcDbBlockTableRecord
  2
block 88
340
0
102
{BLKREFS
331
309
102
}
  0
BLOCK_RECORD
  5
310
330
1
100
AcDbSymbolTableRecord
100
AcDbBlockTableRecord
  2
block 89
340
0
102
{BLKREFS
331
311
102
}
  0
BLOCK_RECORD
  5
321
330
1
100
AcDbSymbolTableRecord
100
AcDbBlockTableRecord
  2
block 90
340
0
102
{BLKREFS
331
322
102
}
  0
BLOCK_RECORD
  5
332
330
1
100
AcDbSymbolTableRecord
100
AcDbBlockTableRecord
  2
block 91
340
0
102
{BLKREFS
331
333
102
}
  0
BLOCK_RECORD
  5
343
330
1
100
AcDbSymbolTableRecord
100
AcDbBlockTableRecord
  2
block 92
340
0
102
{BLKREFS
331
344
102
}
  0
BLOCK_RECORD
  5
34B
330
1
100
AcDbSymbolTableRecord
100
AcDbBlockTableRecord
  2
block 93
340
0
102
{BLKREFS
331
34C
102
}
  0
BLOCK_RECORD
  5
353
330
1
100
AcDbSymbolTableRecord
100
AcDbBlockTableRecord
  2
block 94
340
0
102
{BLKREFS
331
354
102
}
  0
BLOCK_RECORD
  5
35B
330
1
100
AcDbSymbolTableRecord
100
AcDbBlockTableRecord
  2
block 95
340
0
102
{BLKREFS
331
35C
102
}
  0
BLOCK_RECORD
  5
363
330
1
100
AcDbSymbolTableRecord
100
AcDbBlockTableRecord
  2
block 96
340
0
102
{BLKREFS
331
364
102
}
  0
BLOCK_RECORD
  5
36B
330
1
100
AcDbSymbolTableRecord
100
AcDbBlockTableRecord
  2
block 97
340
0
102
{BLKREFS
331
36C
102
}
  0
BLOCK_RECORD
  5
373
330
1
100
AcDbSymbolTableRecord
100
AcDbBlockTableRecord
  2
block 98
340
0
102
{BLKREFS
331
374
102
}
  0
BLOCK_RECORD
  5
37B
330
1
100
AcDbSymbolTableRecord
100
AcDbBlockTableRecord
  2
block 99
340
0
102
{BLKREFS
331
37C
102
}
  0
BLOCK_RECORD
  5
383
330
1
100
AcDbSymbolTableRecord
100
AcDbBlockTableRecord
  2
block 100
340
0
102
{BLKREFS
331
384
102
}
  0
BLOCK_RECORD
  5
38B
330
1
100
AcDbSymbolTableRecord
100
AcDbBlockTableRecord
  2
block 101
340
0
102
{BLKREFS
331
38C
102
}
  0
BLOCK_RECORD
  5
393
330
1
100
AcDbSymbolTableRecord
100
AcDbBlockTableRecord
  2
block 102
340
0
102
{BLKREFS
331
394
102
}
  0
BLOCK_RECORD
  5
39B
330
1
100
AcDbSymbolTableRecord
100
AcDbBlockTableRecord
  2
block 103
340
0
102
{BLKREFS
331
39C
102
}
  0
BLOCK_RECORD
  5
3A3
330
1
100
AcDbSymbolTableRecord
100
AcDbBlockTableRecord
  2
block 104
340
0
102
{BLKREFS
331
3A4
102
}
  0
BLOCK_RECORD
  5
3AB
330
1
100
AcDbSymbolTableRecord
100
AcDbBlockTableRecord
  2
block 105
340
0
102
{BLKREFS
331
3AC
102
}
  0
BLOCK_RECORD
  5
3B3
330
1
100
AcDbSymbolTableRecord
100
AcDbBlockTableRecord
  2
block 106
340
0
102
{BLKREFS
331
3B4
102
}
  0
BLOCK_RECORD
  5
3BB
330
1
100
AcDbSymbolTableRecord
100
AcDbBlockTableRecord
  2
block 107
340
0
102
{BLKREFS
331
3BC
102
}
  0
BLOCK_RECORD
  5
3C3
330
1
100
AcDbSymbolTableRecord
100
AcDbBlockTableRecord
  2
block 108
340
0
102
{BLKREFS
331
3C4
102
}
  0
BLOCK_RECORD
  5
3CB
330
1
100
AcDbSymbolTableRecord
100
AcDbBlockTableRecord
  2
block 109
340
0
102
{BLKREFS
331
3CC
102
}
  0
BLOCK_RECORD
  5
3D3
330
1
100
AcDbSymbolTableRecord
100
AcDbBlockTableRecord
  2
block 110
340
0
102
{BLKREFS
331
3D4
102
}
  0
BLOCK_RECORD
  5
3DB
330
1
100
AcDbSymbolTableRecord
100
AcDbBlockTableRecord
  2
block 111
340
0
102
{BLKREFS
331
3DC
102
}
  0
BLOCK_RECORD
  5
3E3
330
1
100
AcDbSymbolTableRecord
100
AcDbBlockTableRecord
  2
block 112
340
0
102
{BLKREFS
331
3E4
102
}
  0
BLOCK_RECORD
  5
3EB
330
1
100
AcDbSymbolTableRecord
100
AcDbBlockTableRecord
  2
block 113
340
0
102
{BLKREFS
331
3EC
102
}
  0
BLOCK_RECORD
  5
3F3
330
1
100
AcDbSymbolTableRecord
100
AcDbBlockTableRecord
  2
block 114
340
0
102
{BLKREFS
331
3F4
102
}
  0
BLOCK_RECORD
  5
3FB
330
1
100
AcDbSymbolTableRecord
100
AcDbBlockTableRecord
  2
block 115
340
0
102
{BLKREFS
331
3FC
102
}
  0
BLOCK_RECORD
  5
403
330
1
100
AcDbSymbolTableRecord
100
AcDbBlockTableRecord
  2
block 116
340
0
102
{BLKREFS
331
404
102
}
  0
BLOCK_RECORD
  5
40B
330
1
100
AcDbSymbolTableRecord
100
AcDbBlockTableRecord
  2
block 117
340
0
102
{BLKREFS
331
40C
102
}
  0
BLOCK_RECORD
  5
413
330
1
100
AcDbSymbolTableRecord
100
AcDbBlockTableRecord
  2
block 118
340
0
102
{BLKREFS
331
414
102
}
  0
BLOCK_RECORD
  5
41B
330
1
100
AcDbSymbolTableRecord
100
AcDbBlockTableRecord
  2
block 119
340
0
102
{BLKREFS
331
41C
102
}
  0
BLOCK_RECORD
  5
423
330
1
100
AcDbSymbolTableRecord
100
AcDbBlockTableRecord
  2
block 120
340
0
102
{BLKREFS
331
424
102
}
  0
BLOCK_RECORD
  5
42B
330
1
100
AcDbSymbolTableRecord
100
AcDbBlockTableRecord
  2
block 121
340
0
102
{BLKREFS
331
42C
102
}
  0
BLOCK_RECORD
  5
433
330
1
100
AcDbSymbolTableRecord
100
AcDbBlockTableRecord
  2
block 122
340
0
102
{BLKREFS
331
434
102
}
  0
BLOCK_RECORD
  5
43B
330
1
100
AcDbSymbolTableRecord
100
AcDbBlockTableRecord
  2
block 123
340
0
102
{BLKREFS
331
43C
102
}
  0
BLOCK_RECORD
  5
443
330
1
100
AcDbSymbolTableRecord
100
AcDbBlockTableRecord
  2
block 124
340
0
102
{BLKREFS
331
444
102
}
  0
BLOCK_RECORD
  5
44B
330
1
100
AcDbSymbolTableRecord
100
AcDbBlockTableRecord
  2
block 125
340
0
102
{BLKREFS
331
44C
102
}
  0
BLOCK_RECORD
  5
453
330
1
100
AcDbSymbolTableRecord
100
AcDbBlockTableRecord
  2
block 126
340
0
102
{BLKREFS
331
454
102
}
  0
BLOCK_RECORD
  5
45B
330
1
100
AcDbSymbolTableRecord
100
AcDbBlockTableRecord
  2
block 127
340
0
102
{BLKREFS
331
45C
102
}
  0
BLOCK_RECORD
  5
463
330
1
100
AcDbSymbolTableRecord
100
AcDbBlockTableRecord
  2
block 128
340
0
102
{BLKREFS
331
464
102
}
  0
BLOCK_RECORD
  5
46B
330
1
100
AcDbSymbolTableRecord
100
AcDbBlockTableRecord
  2
block 129
340
0
102
{BLKREFS
331
46C
102
}
  0
BLOCK_RECORD
  5
473
330
1
100
AcDbSymbolTableRecord
100
AcDbBlockTableRecord
  2
block 130
340
0
102
{BLKREFS
331
474
102
}
  0
BLOCK_RECORD
  5
47B
330
1
100
AcDbSymbolTableRecord
100
AcDbBlockTableRecord
  2
block 131
340
0
102
{BLKREFS
331
47C
102
}
  0
BLOCK_RECORD
  5
483
330
1
100
AcDbSymbolTableRecord
100
AcDbBlockTableRecord
  2
block 132
340
0
102
{BLKREFS
331
484
102
}
  0
BLOCK_RECORD
  5
48B
330
1
100
AcDbSymbolTableRecord
100
AcDbBlockTableRecord
  2
block 133
340
0
102
{BLKREFS
331
48C
102
}
  0
BLOCK_RECORD
  5
493
330
1
100
AcDbSymbolTableRecord
100
AcDbBlockTableRecord
  2
block 134
340
0
102
{BLKREFS
331
494
102
}
  0
BLOCK_RECORD
  5
49B
330
1
100
AcDbSymbolTableRecord
100
AcDbBlockTableRecord
  2
block 135
340
0
102
{BLKREFS
331
49C
102
}
  0
BLOCK_RECORD
  5
4A3
330
1
100
AcDbSymbolTableRecord
100
AcDbBlockTableRecord
  2
block 136
340
0
102
{BLKREFS
331
4A4
102
}
  0
BLOCK_RECORD
  5
4AB
330
1
100
AcDbSymbolTableRecord
100
AcDbBlockTableRecord
  2
block 137
340
0
102
{BLKREFS
331
4AC
102
}
  0
BLOCK_RECORD
  5
4B3
330
1
100
AcDbSymbolTableRecord
100
AcDbBlockTableRecord
  2
block 138
340
0
102
{BLKREFS
331
4B4
102
}
  0
BLOCK_RECORD
  5
4BB
330
1
100
AcDbSymbolTableRecord
100
AcDbBlockTableRecord
  2
block 139
340
0
102
{BLKREFS
331
4BC
102
}
  0
BLOCK_RECORD
  5
4C3
330
1
100
AcDbSymbolTableRecord
100
AcDbBlockTableRecord
  2
block 140
340
0
102
{BLKREFS
331
4C4
102
}
  0
BLOCK_RECORD
  5
4CB
330
1
100
AcDbSymbolTableRecord
100
AcDbBlockTableRecord
  2
block 141
340
0
102
{BLKREFS
331
4CC
102
}
  0
BLOCK_RECORD
  5
4D3
330
1
100
AcDbSymbolTableRecord
100
AcDbBlockTableRecord
  2
block 142
340
0
102
{BLKREFS
331
4D4
102
}
  0
BLOCK_RECORD
  5
4DB
330
1
100
AcDbSymbolTableRecord
100
AcDbBlockTableRecord
  2
block 143
340
0
102
{BLKREFS
331
4DC
102
}
  0
BLOCK_RECORD
  5
4E3
330
1
100
AcDbSymbolTableRecord
100
AcDbBlockTableRecord
  2
block 144
340
0
102
{BLKREFS
331
4E4
102
}
  0
BLOCK_RECORD
  5
4EB
330
1
100
AcDbSymbolTableRecord
100
AcDbBlockTableRecord
  2
block 145
340
0
102
{BLKREFS
331
4EC
102
}
  0
BLOCK_RECORD
  5
4F3
330
1
100
AcDbSymbolTableRecord
100
AcDbBlockTableRecord
  2
block 146
340
0
102
{BLKREFS
331
4F4
102
}
  0
BLOCK_RECORD
  5
4FB
330
1
100
AcDbSymbolTableRecord
100
AcDbBlockTableRecord
  2
block 147
340
0
102
{BLKREFS
331
4FC
102
}
  0
BLOCK_RECORD
  5
503
330
1
100
AcDbSymbolTableRecord
100
AcDbBlockTableRecord
  2
block 148
340
0
102
{BLKREFS
331
504
102
}
  0
BLOCK_RECORD
  5
50B
330
1
100
AcDbSymbolTableRecord
100
AcDbBlockTableRecord
  2
block 149
340
0
102
{BLKREFS
331
50C
102
}
  0
BLOCK_RECORD
  5
522
330
1
100
AcDbSymbolTableRecord
100
AcDbBlockTableRecord
  2
block 150
340
0
102
{BLKREFS
331
523
102
}
  0
BLOCK_RECORD
  5
52A
330
1
100
AcDbSymbolTableRecord
100
AcDbBlockTableRecord
  2
block 151
340
0
102
{BLKREFS
331
52B
102
}
  0
BLOCK_RECORD
  5
532
330
1
100
AcDbSymbolTableRecord
100
AcDbBlockTableRecord
  2
block 152
340
0
102
{BLKREFS
331
533
102
}
  0
BLOCK_RECORD
  5
53A
330
1
100
AcDbSymbolTableRecord
100
AcDbBlockTableRecord
  2
block 153
340
0
102
{BLKREFS
331
53B
102
}
  0
BLOCK_RECORD
  5
542
330
1
100
AcDbSymbolTableRecord
100
AcDbBlockTableRecord
  2
block 154
340
0
102
{BLKREFS
331
543
102
}
  0
BLOCK_RECORD
  5
54A
330
1
100
AcDbSymbolTableRecord
100
AcDbBlockTableRecord
  2
block 155
340
0
102
{BLKREFS
331
54B
102
}
  0
BLOCK_RECORD
  5
55C
330
1
100
AcDbSymbolTableRecord
100
AcDbBlockTableRecord
  2
block 156
340
0
102
{BLKREFS
331
55D
102
}
  0
BLOCK_RECORD
  5
564
330
1
100
AcDbSymbolTableRecord
100
AcDbBlockTableRecord
  2
block 157
340
0
102
{BLKREFS
331
565
102
}
  0
BLOCK_RECORD
  5
56C
330
1
100
AcDbSymbolTableRecord
100
AcDbBlockTableRecord
  2
block 158
340
0
102
{BLKREFS
331
56D
102
}
  0
BLOCK_RECORD
  5
574
330
1
100
AcDbSymbolTableRecord
100
AcDbBlockTableRecord
  2
block 159
340
0
102
{BLKREFS
331
575
102
}
  0
BLOCK_RECORD
  5
57C
330
1
100
AcDbSymbolTableRecord
100
AcDbBlockTableRecord
  2
block 160
340
0
102
{BLKREFS
331
57D
102
}
  0
BLOCK_RECORD
  5
584
330
1
100
AcDbSymbolTableRecord
100
AcDbBlockTableRecord
  2
block 161
340
0
102
{BLKREFS
331
585
102
}
  0
BLOCK_RECORD
  5
58C
330
1
100
AcDbSymbolTableRecord
100
AcDbBlockTableRecord
  2
block 162
340
0
102
{BLKREFS
331
58D
102
}
  0
BLOCK_RECORD
  5
594
330
1
100
AcDbSymbolTableRecord
100
AcDbBlockTableRecord
  2
block 163
340
0
102
{BLKREFS
331
595
102
}
  0
BLOCK_RECORD
  5
59C
330
1
100
AcDbSymbolTableRecord
100
AcDbBlockTableRecord
  2
block 164
340
0
102
{BLKREFS
331
59D
102
}
  0
BLOCK_RECORD
  5
5A4
330
1
100
AcDbSymbolTableRecord
100
AcDbBlockTableRecord
  2
block 165
340
0
102
{BLKREFS
331
5A5
102
}
  0
BLOCK_RECORD
  5
5AC
330
1
100
AcDbSymbolTableRecord
100
AcDbBlockTableRecord
  2
block 166
340
0
102
{BLKREFS
331
5AD
102
}
  0
BLOCK_RECORD
  5
5B4
330
1
100
AcDbSymbolTableRecord
100
AcDbBlockTableRecord
  2
block 167
340
0
102
{BLKREFS
331
5B5
102
}
  0
BLOCK_RECORD
  5
5BC
330
1
100
AcDbSymbolTableRecord
100
AcDbBlockTableRecord
  2
block 168
340
0
102
{BLKREFS
331
5BD
102
}
  0
BLOCK_RECORD
  5
5C4
330
1
100
AcDbSymbolTableRecord
100
AcDbBlockTableRecord
  2
block 169
340
0
102
{BLKREFS
331
5C5
102
}
  0
BLOCK_RECORD
  5
5CC
330
1
100
AcDbSymbolTableRecord
100
AcDbBlockTableRecord
  2
block 170
340
0
102
{BLKREFS
331
5CD
102
}
  0
BLOCK_RECORD
  5
5D4
330
1
100
AcDbSymbolTableRecord
100
AcDbBlockTableRecord
  2
block 171
340
0
102
{BLKREFS
331
5D5
102
}
  0
BLOCK_RECORD
  5
5DC
330
1
100
AcDbSymbolTableRecord
100
AcDbBlockTableRecord
  2
block 172
340
0
102
{BLKREFS
331
5DD
102
}
  0
BLOCK_RECORD
  5
5E2
330
1
100
AcDbSymbolTableRecord
100
AcDbBlockTableRecord
  2
block 173
340
0
102
{BLKREFS
331
5E3
102
}
  0
BLOCK_RECORD
  5
5E8
330
1
100
AcDbSymbolTableRecord
100
AcDbBlockTableRecord
  2
block 174
340
0
102
{BLKREFS
331
5E9
102
}
  0
BLOCK_RECORD
  5
5EE
330
1
100
AcDbSymbolTableRecord
100
AcDbBlockTableRecord
  2
block 175
340
0
102
{BLKREFS
331
5EF
102
}
  0
BLOCK_RECORD
  5
5F4
330
1
100
AcDbSymbolTableRecord
100
AcDbBlockTableRecord
  2
block 176
340
0
102
{BLKREFS
331
5F5
102
}
  0
BLOCK_RECORD
  5
5FA
330
1
100
AcDbSymbolTableRecord
100
AcDbBlockTableRecord
  2
block 177
340
0
102
{BLKREFS
331
5FB
102
}
  0
BLOCK_RECORD
  5
600
330
1
100
AcDbSymbolTableRecord
100
AcDbBlockTableRecord
  2
block 178
340
0
102
{BLKREFS
331
601
102
}
  0
BLOCK_RECORD
  5
606
330
1
100
AcDbSymbolTableRecord
100
AcDbBlockTableRecord
  2
block 179
340
0
102
{BLKREFS
331
607
102
}
  0
BLOCK_RECORD
  5
60C
330
1
100
AcDbSymbolTableRecord
100
AcDbBlockTableRecord
  2
block 180
340
0
102
{BLKREFS
331
60D
102
}
  0
BLOCK_RECORD
  5
612
330
1
100
AcDbSymbolTableRecord
100
AcDbBlockTableRecord
  2
block 181
340
0
102
{BLKREFS
331
613
102
}
  0
BLOCK_RECORD
  5
618
330
1
100
AcDbSymbolTableRecord
100
AcDbBlockTableRecord
  2
block 182
340
0
102
{BLKREFS
331
619
102
}
  0
BLOCK_RECORD
  5
61E
330
1
100
AcDbSymbolTableRecord
100
AcDbBlockTableRecord
  2
block 183
340
0
102
{BLKREFS
331
61F
102
}
  0
BLOCK_RECORD
  5
624
330
1
100
AcDbSymbolTableRecord
100
AcDbBlockTableRecord
  2
block 184
340
0
102
{BLKREFS
331
625
102
}
  0
BLOCK_RECORD
  5
62A
330
1
100
AcDbSymbolTableRecord
100
AcDbBlockTableRecord
  2
block 185
340
0
102
{BLKREFS
331
62B
102
}
  0
BLOCK_RECORD
  5
630
330
1
100
AcDbSymbolTableRecord
100
AcDbBlockTableRecord
  2
block 186
340
0
102
{BLKREFS
331
631
102
}
  0
BLOCK_RECORD
  5
636
330
1
100
AcDbSymbolTableRecord
100
AcDbBlockTableRecord
  2
block 187
340
0
102
{BLKREFS
331
637
102
}
  0
BLOCK_RECORD
  5
63C
330
1
100
AcDbSymbolTableRecord
100
AcDbBlockTableRecord
  2
block 188
340
0
102
{BLKREFS
331
63D
102
}
  0
BLOCK_RECORD
  5
642
330
1
100
AcDbSymbolTableRecord
100
AcDbBlockTableRecord
  2
block 189
340
0
102
{BLKREFS
331
643
102
}
  0
BLOCK_RECORD
  5
648
330
1
100
AcDbSymbolTableRecord
100
AcDbBlockTableRecord
  2
block 190
340
0
102
{BLKREFS
331
649
102
}
  0
BLOCK_RECORD
  5
64E
330
1
100
AcDbSymbolTableRecord
100
AcDbBlockTableRecord
  2
block 191
340
0
102
{BLKREFS
331
64F
102
}
  0
BLOCK_RECORD
  5
654
330
1
100
AcDbSymbolTableRecord
100
AcDbBlockTableRecord
  2
block 192
340
0
102
{BLKREFS
331
655
102
}
  0
BLOCK_RECORD
  5
65A
330
1
100
AcDbSymbolTableRecord
100
AcDbBlockTableRecord
  2
block 193
340
0
102
{BLKREFS
331
65B
102
}
  0
BLOCK_RECORD
  5
660
330
1
100
AcDbSymbolTableRecord
100
AcDbBlockTableRecord
  2
block 194
340
0
102
{BLKREFS
331
661
102
}
  0
BLOCK_RECORD
  5
666
330
1
100
AcDbSymbolTableRecord
100
AcDbBlockTableRecord
  2
block 195
340
0
102
{BLKREFS
331
667
102
}
  0
BLOCK_RECORD
  5
66C
330
1
100
AcDbSymbolTableRecord
100
AcDbBlockTableRecord
  2
block 196
340
0
102
{BLKREFS
331
66D
102
}
  0
BLOCK_RECORD
  5
674
330
1
100
AcDbSymbolTableRecord
100
AcDbBlockTableRecord
  2
block 197
340
0
102
{BLKREFS
331
675
102
}
  0
BLOCK_RECORD
  5
67C
330
1
100
AcDbSymbolTableRecord
100
AcDbBlockTableRecord
  2
block 198
340
0
102
{BLKREFS
331
67D
102
}
  0
BLOCK_RECORD
  5
684
330
1
100
AcDbSymbolTableRecord
100
AcDbBlockTableRecord
  2
block 199
340
0
102
{BLKREFS
331
685
102
}
  0
BLOCK_RECORD
  5
68C
330
1
100
AcDbSymbolTableRecord
100
AcDbBlockTableRecord
  2
block 200
340
0
102
{BLKREFS
331
68D
102
}
  0
BLOCK_RECORD
  5
694
330
1
100
AcDbSymbolTableRecord
100
AcDbBlockTableRecord
  2
block 201
340
0
102
{BLKREFS
331
695
102
}
  0
BLOCK_RECORD
  5
69C
330
1
100
AcDbSymbolTableRecord
100
AcDbBlockTableRecord
  2
block 202
340
0
102
{BLKREFS
331
69D
102
}
  0
BLOCK_RECORD
  5
6A1
330
1
100
AcDbSymbolTableRecord
100
AcDbBlockTableRecord
  2
block 203
340
0
102
{BLKREFS
331
6A2
102
}
  0
BLOCK_RECORD
  5
6A6
330
1
100
AcDbSymbolTableRecord
100
AcDbBlockTableRecord
  2
block 204
340
0
102
{BLKREFS
331
6A7
102
}
  0
ENDTAB
  0
ENDSEC
  0
SECTION
  2
BLOCKS
  0
BLOCK
  5
20
330
1F
100
AcDbEntity
  8
0
100
AcDbBlockBegin
  2
*Model_Space
 70
     0
 71
     0
 10
0.0
 20
0.0
 30
0.0
  3
*Model_Space
  1

  0
ENDBLK
  5
21
330
1F
100
AcDbEntity
  8
0
100
AcDbBlockEnd
  0
BLOCK
  5
1C
330
1B
100
AcDbEntity
 67
     1
  8
0
100
AcDbBlockBegin
  2
*Paper_Space
 70
     0
 71
     0
 10
0.0
 20
0.0
 30
0.0
  3
*Paper_Space
  1

  0
ENDBLK
  5
1D
330
1B
100
AcDbEntity
 67
     1
  8
0
100
AcDbBlockEnd
  0
BLOCK
  5
24
330
23
100
AcDbEntity
  8
0
100
AcDbBlockBegin
  2
*Paper_Space0
 70
     0
 71
     0
 10
0.0
 20
0.0
 30
0.0
  3
*Paper_Space0
  1

  0
ENDBLK
  5
25
330
23
100
AcDbEntity
  8
0
100
AcDbBlockEnd
  0
BLOCK
  5
3E
330
3C
100
AcDbEntity
  8
0
100
AcDbBlockBegin
  2
block 2
 70
     0
 71
     0
 10
0.0
 20
0.0
 30
0.0
  3
block 2
  1

  0
POLYLINE
  5
40
330
3C
100
AcDbEntity
  8
0
 62
   250
420
  1842203
370
     9
100
AcDb2dPolyline
 66
     1
 10
0.0
 20
0.0
 30
0.0
  0
VERTEX
  5
41
330
40
100
AcDbEntity
  8
0
 62
   250
420
  1842203
370
     9
100
AcDbVertex
100
AcDb2dVertex
 10
198.6787877016506
 20
137.6116738635733
 30
0.0
  0
VERTEX
  5
42
330
40
100
AcDbEntity
  8
0
 62
   250
420
  1842203
370
     9
100
AcDbVertex
100
AcDb2dVertex
 10
198.6787877016506
 20
160.4509494499803
 30
0.0
  0
SEQEND
  5
43
330
40
100
AcDbEntity
  8
0
370
     9
  0
ENDBLK
  5
3F
330
3C
100
AcDbEntity
  8
0
100
AcDbBlockEnd
  0
BLOCK
  5
46
330
44
100
AcDbEntity
  8
0
100
AcDbBlockBegin
  2
block 3
 70
     0
 71
     0
 10
0.0
 20
0.0
 30
0.0
  3
block 3
  1

  0
POLYLINE
  5
48
330
44
100
AcDbEntity
  8
0
 62
   250
420
  1842203
370
     9
100
AcDb2dPolyline
 66
     1
 10
0.0
 20
0.0
 30
0.0
  0
VERTEX
  5
49
330
48
100
AcDbEntity
  8
0
 62
   250
420
  1842203
370
     9
100
AcDbVertex
100
AcDb2dVertex
 10
199.0813473746684
 20
160.0485620318504
 30
0.0
  0
VERTEX
  5
4A
330
48
100
AcDbEntity
  8
0
 62
   250
420
  1842203
370
     9
100
AcDbVertex
100
AcDb2dVertex
 10
199.0813473746684
 20
138.0140612817032
 30
0.0
  0
SEQEND
  5
4B
330
48
100
AcDbEntity
  8
0
370
     9
  0
ENDBLK
  5
47
330
44
100
AcDbEntity
  8
0
100
AcDbBlockEnd
  0
BLOCK
  5
4E
330
4C
100
AcDbEntity
  8
0
100
AcDbBlockBegin
  2
block 4
 70
     0
 71
     0
 10
0.0
 20
0.0
 30
0.0
  3
block 4
  1

  0
POLYLINE
  5
50
330
4C
100
AcDbEntity
  8
0
 62
   250
420
  1842203
370
     9
100
AcDb2dPolyline
 66
     1
 10
0.0
 20
0.0
 30
0.0
  0
VERTEX
  5
51
330
50
100
AcDbEntity
  8
0
 62
   250
420
  1842203
370
     9
100
AcDbVertex
100
AcDb2dVertex
 10
221.5187523076092
 20
137.6116738635733
 30
0.0
  0
VERTEX
  5
52
330
50
100
AcDbEntity
  8
0
 62
   250
420
  1842203
370
     9
100
AcDbVertex
100
AcDb2dVertex
 10
198.6787877016506
 20
137.6116738635733
 30
0.0
  0
SEQEND
  5
53
330
50
100
AcDbEntity
  8
0
370
     9
  0
ENDBLK
  5
4F
330
4C
100
AcDbEntity
  8
0
100
AcDbBlockEnd
  0
BLOCK
  5
56
330
54
100
AcDbEntity
  8
0
100
AcDbBlockBegin
  2
block 5
 70
     0
 71
     0
 10
0.0
 20
0.0
 30
0.0
  3
block 5
  1

  0
POLYLINE
  5
58
330
54
100
AcDbEntity
  8
0
 62
   250
420
  1842203
370
     9
100
AcDb2dPolyline
 66
     1
 10
0.0
 20
0.0
 30
0.0
  0
VERTEX
  5
59
330
58
100
AcDbEntity
  8
0
 62
   250
420
  1842203
370
     9
100
AcDbVertex
100
AcDb2dVertex
 10
199.0813473746684
 20
138.0140612817032
 30
0.0
  0
VERTEX
  5
5A
330
58
100
AcDbEntity
  8
0
 62
   250
420
  1842203
370
     9
100
AcDbVertex
100
AcDb2dVertex
 10
221.1163648894793
 20
138.0140612817032
 30
0.0
  0
SEQEND
  5
5B
330
58
100
AcDbEntity
  8
0
370
     9
  0
ENDBLK
  5
57
330
54
100
AcDbEntity
  8
0
100
AcDbBlockEnd
  0
BLOCK
  5
5E
330
5C
100
AcDbEntity
  8
0
100
AcDbBlockBegin
  2
block 6
 70
     0
 71
     0
 10
0.0
 20
0.0
 30
0.0
  3
block 6
  1

  0
POLYLINE
  5
60
330
5C
100
AcDbEntity
  8
0
 62
   250
420
  1842203
370
     9
100
AcDb2dPolyline
 66
     1
 10
0.0
 20
0.0
 30
0.0
  0
VERTEX
  5
61
330
60
100
AcDbEntity
  8
0
 62
   250
420
  1842203
370
     9
100
AcDbVertex
100
AcDb2dVertex
 10
199.5602159630251
 20
138.4929298700599
 30
0.0
  0
VERTEX
  5
62
330
60
100
AcDbEntity
  8
0
 62
   250
420
  1842203
370
     9
100
AcDbVertex
100
AcDb2dVertex
 10
199.5602159630251
 20
159.5696934434937
 30
0.0
  0
SEQEND
  5
63
330
60
100
AcDbEntity
  8
0
370
     9
  0
ENDBLK
  5
5F
330
5C
100
AcDbEntity
  8
0
100
AcDbBlockEnd
  0
BLOCK
  5
66
330
64
100
AcDbEntity
  8
0
100
AcDbBlockBegin
  2
block 7
 70
     0
 71
     0
 10
0.0
 20
0.0
 30
0.0
  3
block 7
  1

  0
POLYLINE
  5
68
330
64
100
AcDbEntity
  8
0
 62
   250
420
  1842203
370
     9
100
AcDb2dPolyline
 66
     1
 10
0.0
 20
0.0
 30
0.0
  0
VERTEX
  5
69
330
68
100
AcDbEntity
  8
0
 62
   250
420
  1842203
370
     9
100
AcDbVertex
100
AcDb2dVertex
 10
220.6374963011226
 20
138.4929298700599
 30
0.0
  0
VERTEX
  5
6A
330
68
100
AcDbEntity
  8
0
 62
   250
420
  1842203
370
     9
100
AcDbVertex
100
AcDb2dVertex
 10
199.5602159630251
 20
138.4929298700599
 30
0.0
  0
SEQEND
  5
6B
330
68
100
AcDbEntity
  8
0
370
     9
  0
ENDBLK
  5
67
330
64
100
AcDbEntity
  8
0
100
AcDbBlockEnd
  0
BLOCK
  5
6E
330
6C
100
AcDbEntity
  8
0
100
AcDbBlockBegin
  2
block 8
 70
     0
 71
     0
 10
0.0
 20
0.0
 30
0.0
  3
block 8
  1

  0
POLYLINE
  5
70
330
6C
100
AcDbEntity
  8
0
 62
   250
420
  1842203
370
     9
100
AcDb2dPolyline
 66
     1
 10
0.0
 20
0.0
 30
0.0
  0
VERTEX
  5
71
330
70
100
AcDbEntity
  8
0
 62
   250
420
  1842203
370
     9
100
AcDbVertex
100
AcDb2dVertex
 10
220.6374963011226
 20
159.5696934434937
 30
0.0
  0
VERTEX
  5
72
330
70
100
AcDbEntity
  8
0
 62
   250
420
  1842203
370
     9
100
AcDbVertex
100
AcDb2dVertex
 10
220.6374963011226
 20
138.4929298700599
 30
0.0
  0
SEQEND
  5
73
330
70
100
AcDbEntity
  8
0
370
     9
  0
ENDBLK
  5
6F
330
6C
100
AcDbEntity
  8
0
100
AcDbBlockEnd
  0
BLOCK
  5
76
330
74
100
AcDbEntity
  8
0
100
AcDbBlockBegin
  2
block 9
 70
     0
 71
     0
 10
0.0
 20
0.0
 30
0.0
  3
block 9
  1

  0
POLYLINE
  5
78
330
74
100
AcDbEntity
  8
0
 62
   250
420
  1842203
370
     9
100
AcDb2dPolyline
 66
     1
 10
0.0
 20
0.0
 30
0.0
  0
VERTEX
  5
79
330
78
100
AcDbEntity
  8
0
 62
   250
420
  1842203
370
     9
100
AcDbVertex
100
AcDb2dVertex
 10
199.5602159630251
 20
159.5696934434937
 30
0.0
  0
VERTEX
  5
7A
330
78
100
AcDbEntity
  8
0
 62
   250
420
  1842203
370
     9
100
AcDbVertex
100
AcDb2dVertex
 10
220.6374963011226
 20
159.5696934434937
 30
0.0
  0
SEQEND
  5
7B
330
78
100
AcDbEntity
  8
0
370
     9
  0
ENDBLK
  5
77
330
74
100
AcDbEntity
  8
0
100
AcDbBlockEnd
  0
BLOCK
  5
7E
330
7C
100
AcDbEntity
  8
0
100
AcDbBlockBegin
  2
block 10
 70
     0
 71
     0
 10
0.0
 20
0.0
 30
0.0
  3
block 10
  1

  0
POLYLINE
  5
80
330
7C
100
AcDbEntity
  8
0
 62
   250
420
  1842203
370
     9
100
AcDb2dPolyline
 66
     1
 10
0.0
 20
0.0
 30
0.0
  0
VERTEX
  5
81
330
80
100
AcDbEntity
  8
0
 62
   250
420
  1842203
370
     9
100
AcDbVertex
100
AcDb2dVertex
 10
221.1163648894793
 20
138.0140612817032
 30
0.0
  0
VERTEX
  5
82
330
80
100
AcDbEntity
  8
0
 62
   250
420
  1842203
370
     9
100
AcDbVertex
100
AcDb2dVertex
 10
221.1163648894793
 20
160.0485620318504
 30
0.0
  0
SEQEND
  5
83
330
80
100
AcDbEntity
  8
0
370
     9
  0
ENDBLK
  5
7F
330
7C
100
AcDbEntity
  8
0
100
AcDbBlockEnd
  0
BLOCK
  5
86
330
84
100
AcDbEntity
  8
0
100
AcDbBlockBegin
  2
block 11
 70
     0
 71
     0
 10
0.0
 20
0.0
 30
0.0
  3
block 11
  1

  0
POLYLINE
  5
88
330
84
100
AcDbEntity
  8
0
 62
   250
420
  1842203
370
     9
100
AcDb2dPolyline
 66
     1
 10
0.0
 20
0.0
 30
0.0
  0
VERTEX
  5
89
330
88
100
AcDbEntity
  8
0
 62
   250
420
  1842203
370
     9
100
AcDbVertex
100
AcDb2dVertex
 10
221.5187523076092
 20
160.4509494499803
 30
0.0
  0
VERTEX
  5
8A
330
88
100
AcDbEntity
  8
0
 62
   250
420
  1842203
370
     9
100
AcDbVertex
100
AcDb2dVertex
 10
221.5187523076092
 20
137.6116738635733
 30
0.0
  0
SEQEND
  5
8B
330
88
100
AcDbEntity
  8
0
370
     9
  0
ENDBLK
  5
87
330
84
100
AcDbEntity
  8
0
100
AcDbBlockEnd
  0
BLOCK
  5
8E
330
8C
100
AcDbEntity
  8
0
100
AcDbBlockBegin
  2
block 12
 70
     0
 71
     0
 10
0.0
 20
0.0
 30
0.0
  3
block 12
  1

  0
POLYLINE
  5
90
330
8C
100
AcDbEntity
  8
0
 62
   250
420
  1842203
370
     9
100
AcDb2dPolyline
 66
     1
 10
0.0
 20
0.0
 30
0.0
  0
VERTEX
  5
91
330
90
100
AcDbEntity
  8
0
 62
   250
420
  1842203
370
     9
100
AcDbVertex
100
AcDb2dVertex
 10
221.1163648894793
 20
160.0485620318504
 30
0.0
  0
VERTEX
  5
92
330
90
100
AcDbEntity
  8
0
 62
   250
420
  1842203
370
     9
100
AcDbVertex
100
AcDb2dVertex
 10
199.0813473746684
 20
160.0485620318504
 30
0.0
  0
SEQEND
  5
93
330
90
100
AcDbEntity
  8
0
370
     9
  0
ENDBLK
  5
8F
330
8C
100
AcDbEntity
  8
0
100
AcDbBlockEnd
  0
BLOCK
  5
96
330
94
100
AcDbEntity
  8
0
100
AcDbBlockBegin
  2
block 13
 70
     0
 71
     0
 10
0.0
 20
0.0
 30
0.0
  3
block 13
  1

  0
POLYLINE
  5
98
330
94
100
AcDbEntity
  8
0
 62
   250
420
  1842203
370
     9
100
AcDb2dPolyline
 66
     1
 10
0.0
 20
0.0
 30
0.0
  0
VERTEX
  5
99
330
98
100
AcDbEntity
  8
0
 62
   250
420
  1842203
370
     9
100
AcDbVertex
100
AcDb2dVertex
 10
198.6787877016506
 20
160.4509494499803
 30
0.0
  0
VERTEX
  5
9A
330
98
100
AcDbEntity
  8
0
 62
   250
420
  1842203
370
     9
100
AcDbVertex
100
AcDb2dVertex
 10
221.5187523076092
 20
160.4509494499803
 30
0.0
  0
SEQEND
  5
9B
330
98
100
AcDbEntity
  8
0
370
     9
  0
ENDBLK
  5
97
330
94
100
AcDbEntity
  8
0
100
AcDbBlockEnd
  0
BLOCK
  5
9E
330
9C
100
AcDbEntity
  8
0
100
AcDbBlockBegin
  2
block 14
 70
     0
 71
     0
 10
0.0
 20
0.0
 30
0.0
  3
block 14
  1

  0
POLYLINE
  5
A0
330
9C
100
AcDbEntity
  8
0
 62
   250
420
  1842203
370
     9
100
AcDb2dPolyline
 66
     1
 10
0.0
 20
0.0
 30
0.0
  0
VERTEX
  5
A1
330
A0
100
AcDbEntity
  8
0
 62
   250
420
  1842203
370
     9
100
AcDbVertex
100
AcDb2dVertex
 10
198.6787877016506
 20
164.8160605642057
 30
0.0
  0
VERTEX
  5
A2
330
A0
100
AcDbEntity
  8
0
 62
   250
420
  1842203
370
     9
100
AcDbVertex
100
AcDb2dVertex
 10
198.6787877016506
 20
165.2184479823356
 30
0.0
  0
SEQEND
  5
A3
330
A0
100
AcDbEntity
  8
0
370
     9
  0
ENDBLK
  5
9F
330
9C
100
AcDbEntity
  8
0
100
AcDbBlockEnd
  0
BLOCK
  5
A6
330
A4
100
AcDbEntity
  8
0
100
AcDbBlockBegin
  2
block 15
 70
     0
 71
     0
 10
0.0
 20
0.0
 30
0.0
  3
block 15
  1

  0
POLYLINE
  5
A8
330
A4
100
AcDbEntity
  8
0
 62
   250
420
  1842203
370
     9
100
AcDb2dPolyline
 66
     1
 10
0.0
 20
0.0
 30
0.0
  0
VERTEX
  5
A9
330
A8
100
AcDbEntity
  8
0
 62
   250
420
  1842203
370
     9
100
AcDbVertex
100
AcDb2dVertex
 10
199.3323227463359
 20
165.3180113075407
 30
0.0
  0
VERTEX
  5
AA
330
A8
100
AcDbEntity
  8
0
 62
   250
420
  1842203
370
     9
100
AcDbVertex
100
AcDb2dVertex
 10
199.3326672561117
 20
165.3104320924731
 30
0.0
  0
VERTEX
  5
AB
330
A8
100
AcDbEntity
  8
0
 62
   250
420
  1842203
370
     9
100
AcDbVertex
100
AcDb2dVertex
 10
199.3330117658875
 20
165.3028528774056
 30
0.0
  0
VERTEX
  5
AC
330
A8
100
AcDbEntity
  8
0
 62
   250
420
  1842203
370
     9
100
AcDbVertex
100
AcDb2dVertex
 10
199.3340452952149
 20
165.2956181721139
 30
0.0
  0
VERTEX
  5
AD
330
A8
100
AcDbEntity
  8
0
 62
   250
420
  1842203
370
     9
100
AcDbVertex
100
AcDb2dVertex
 10
199.3354233343181
 20
165.2883834668222
 30
0.0
  0
VERTEX
  5
AE
330
A8
100
AcDbEntity
  8
0
 62
   250
420
  1842203
370
     9
100
AcDbVertex
100
AcDb2dVertex
 10
199.3371458831971
 20
165.2814932713063
 30
0.0
  0
VERTEX
  5
AF
330
A8
100
AcDbEntity
  8
0
 62
   250
420
  1842203
370
     9
100
AcDbVertex
100
AcDb2dVertex
 10
199.3393851967397
 20
165.2752920953419
 30
0.0
  0
VERTEX
  5
B0
330
A8
100
AcDbEntity
  8
0
 62
   250
420
  1842203
370
     9
100
AcDbVertex
100
AcDb2dVertex
 10
199.3416245102824
 20
165.2694354291534
 30
0.0
  0
VERTEX
  5
B1
330
A8
100
AcDbEntity
  8
0
 62
   250
420
  1842203
370
     9
100
AcDbVertex
100
AcDb2dVertex
 10
199.3443805884888
 20
165.2639232727407
 30
0.0
  0
VERTEX
  5
B2
330
A8
100
AcDbEntity
  8
0
 62
   250
420
  1842203
370
     9
100
AcDbVertex
100
AcDb2dVertex
 10
199.347308921583
 20
165.2591001358795
 30
0.0
  0
VERTEX
  5
B3
330
A8
100
AcDbEntity
  8
0
 62
   250
420
  1842203
370
     9
100
AcDbVertex
100
AcDb2dVertex
 10
199.3505817644531
 20
165.25496601857
 30
0.0
  0
VERTEX
  5
B4
330
A8
100
AcDbEntity
  8
0
 62
   250
420
  1842203
370
     9
100
AcDbVertex
100
AcDb2dVertex
 10
199.3540268622111
 20
165.251520920812
 30
0.0
  0
VERTEX
  5
B5
330
A8
100
AcDbEntity
  8
0
 62
   250
420
  1842203
370
     9
100
AcDbVertex
100
AcDb2dVertex
 10
199.3572997050811
 20
165.2484203328299
 30
0.0
  0
VERTEX
  5
B6
330
A8
100
AcDbEntity
  8
0
 62
   250
420
  1842203
370
     9
100
AcDbVertex
100
AcDb2dVertex
 10
199.3612615675028
 20
165.2466977839509
 30
0.0
  0
VERTEX
  5
B7
330
A8
100
AcDbEntity
  8
0
 62
   250
420
  1842203
370
     9
100
AcDbVertex
100
AcDb2dVertex
 10
199.3648789201486
 20
165.2456642546235
 30
0.0
  0
VERTEX
  5
B8
330
A8
100
AcDbEntity
  8
0
 62
   250
420
  1842203
370
     9
100
AcDbVertex
100
AcDb2dVertex
 10
199.3686685276824
 20
165.2453197448477
 30
0.0
  0
SEQEND
  5
B9
330
A8
100
AcDbEntity
  8
0
370
     9
  0
HATCH
  5
BA
330
A4
100
AcDbEntity
  8
0
 62
   250
420
  1842203
100
AcDbHatch
 10
0.0
 20
0.0
 30
0.0
210
0.0
220
0.0
230
1.0
  2
SOLID
 70
     1
 71
     0
 91
        1
 92
        1
 93
       16
 72
     1
 10
199.3323227463359
 20
165.3180113075407
 11
199.3326672561117
 21
165.3104320924731
 72
     1
 10
199.3326672561117
 20
165.3104320924731
 11
199.3330117658875
 21
165.3028528774056
 72
     1
 10
199.3330117658875
 20
165.3028528774056
 11
199.3340452952149
 21
165.2956181721139
 72
     1
 10
199.3340452952149
 20
165.2956181721139
 11
199.3354233343181
 21
165.2883834668222
 72
     1
 10
199.3354233343181
 20
165.2883834668222
 11
199.3371458831971
 21
165.2814932713063
 72
     1
 10
199.3371458831971
 20
165.2814932713063
 11
199.3393851967397
 21
165.2752920953419
 72
     1
 10
199.3393851967397
 20
165.2752920953419
 11
199.3416245102824
 21
165.2694354291534
 72
     1
 10
199.3416245102824
 20
165.2694354291534
 11
199.3443805884888
 21
165.2639232727407
 72
     1
 10
199.3443805884888
 20
165.2639232727407
 11
199.347308921583
 21
165.2591001358795
 72
     1
 10
199.347308921583
 20
165.2591001358795
 11
199.3505817644531
 21
165.25496601857
 72
     1
 10
199.3505817644531
 20
165.25496601857
 11
199.3540268622111
 21
165.251520920812
 72
     1
 10
199.3540268622111
 20
165.251520920812
 11
199.3572997050811
 21
165.2484203328299
 72
     1
 10
199.3572997050811
 20
165.2484203328299
 11
199.3612615675028
 21
165.2466977839509
 72
     1
 10
199.3612615675028
 20
165.2466977839509
 11
199.3648789201486
 21
165.2456642546235
 72
     1
 10
199.3648789201486
 20
165.2456642546235
 11
199.3686685276824
 21
165.2453197448477
 72
     1
 10
199.3686685276824
 20
165.2453197448477
 11
199.3323227463359
 21
165.3180113075407
 97
        0
 75
     2
 76
     1
 98
        0
  0
ENDBLK
  5
A7
330
A4
100
AcDbEntity
  8
0
100
AcDbBlockEnd
  0
BLOCK
  5
BD
330
BB
100
AcDbEntity
  8
0
100
AcDbBlockBegin
  2
block 16
 70
     0
 71
     0
 10
0.0
 20
0.0
 30
0.0
  3
block 16
  1

  0
POLYLINE
  5
BF
330
BB
100
AcDbEntity
  8
0
 62
   250
420
  1842203
370
     9
100
AcDb2dPolyline
 66
     1
 10
0.0
 20
0.0
 30
0.0
  0
VERTEX
  5
C0
330
BF
100
AcDbEntity
  8
0
 62
   250
420
  1842203
370
     9
100
AcDbVertex
100
AcDb2dVertex
 10
198.8129742593232
 20
165.2604781749827
 30
0.0
  0
VERTEX
  5
C1
330
BF
100
AcDbEntity
  8
0
 62
   250
420
  1842203
370
     9
100
AcDbVertex
100
AcDb2dVertex
 10
198.8129742593232
 20
165.3180113075407
 30
0.0
  0
SEQEND
  5
C2
330
BF
100
AcDbEntity
  8
0
370
     9
  0
ENDBLK
  5
BE
330
BB
100
AcDbEntity
  8
0
100
AcDbBlockEnd
  0
BLOCK
  5
C5
330
C3
100
AcDbEntity
  8
0
100
AcDbBlockBegin
  2
block 17
 70
     0
 71
     0
 10
0.0
 20
0.0
 30
0.0
  3
block 17
  1

  0
POLYLINE
  5
C7
330
C3
100
AcDbEntity
  8
0
 62
   250
420
  1842203
370
     9
100
AcDb2dPolyline
 66
     1
 10
0.0
 20
0.0
 30
0.0
  0
VERTEX
  5
C8
330
C7
100
AcDbEntity
  8
0
 62
   250
420
  1842203
370
     9
100
AcDbVertex
100
AcDb2dVertex
 10
198.8763640580697
 20
165.3696877739101
 30
0.0
  0
VERTEX
  5
C9
330
C7
100
AcDbEntity
  8
0
 62
   250
420
  1842203
370
     9
100
AcDbVertex
100
AcDb2dVertex
 10
198.8763640580697
 20
165.327657581263
 30
0.0
  0
SEQEND
  5
CA
330
C7
100
AcDbEntity
  8
0
370
     9
  0
ENDBLK
  5
C6
330
C3
100
AcDbEntity
  8
0
100
AcDbBlockEnd
  0
BLOCK
  5
CD
330
CB
100
AcDbEntity
  8
0
100
AcDbBlockBegin
  2
block 18
 70
     0
 71
     0
 10
0.0
 20
0.0
 30
0.0
  3
block 18
  1

  0
POLYLINE
  5
CF
330
CB
100
AcDbEntity
  8
0
 62
   250
420
  1842203
370
     9
100
AcDb2dPolyline
 66
     1
 10
0.0
 20
0.0
 30
0.0
  0
VERTEX
  5
D0
330
CF
100
AcDbEntity
  8
0
 62
   250
420
  1842203
370
     9
100
AcDbVertex
100
AcDb2dVertex
 10
198.931657877085
 20
165.2184479823356
 30
0.0
  0
VERTEX
  5
D1
330
CF
100
AcDbEntity
  8
0
 62
   250
420
  1842203
370
     9
100
AcDbVertex
100
AcDb2dVertex
 10
198.931657877085
 20
165.2604781749827
 30
0.0
  0
SEQEND
  5
D2
330
CF
100
AcDbEntity
  8
0
370
     9
  0
ENDBLK
  5
CE
330
CB
100
AcDbEntity
  8
0
100
AcDbBlockEnd
  0
BLOCK
  5
D5
330
D3
100
AcDbEntity
  8
0
100
AcDbBlockBegin
  2
block 19
 70
     0
 71
     0
 10
0.0
 20
0.0
 30
0.0
  3
block 19
  1

  0
POLYLINE
  5
D7
330
D3
100
AcDbEntity
  8
0
 62
   250
420
  1842203
370
     9
100
AcDb2dPolyline
 66
     1
 10
0.0
 20
0.0
 30
0.0
  0
VERTEX
  5
D8
330
D7
100
AcDbEntity
  8
0
 62
   250
420
  1842203
370
     9
100
AcDbVertex
100
AcDb2dVertex
 10
198.9375145432735
 20
165.2604781749827
 30
0.0
  0
VERTEX
  5
D9
330
D7
100
AcDbEntity
  8
0
 62
   250
420
  1842203
370
     9
100
AcDbVertex
100
AcDb2dVertex
 10
198.9375145432735
 20
165.2184479823356
 30
0.0
  0
SEQEND
  5
DA
330
D7
100
AcDbEntity
  8
0
370
     9
  0
ENDBLK
  5
D6
330
D3
100
AcDbEntity
  8
0
100
AcDbBlockEnd
  0
BLOCK
  5
DD
330
DB
100
AcDbEntity
  8
0
100
AcDbBlockBegin
  2
block 20
 70
     0
 71
     0
 10
0.0
 20
0.0
 30
0.0
  3
block 20
  1

  0
POLYLINE
  5
DF
330
DB
100
AcDbEntity
  8
0
 62
   250
420
  1842203
370
     9
100
AcDb2dPolyline
 66
     1
 10
0.0
 20
0.0
 30
0.0
  0
VERTEX
  5
E0
330
DF
100
AcDbEntity
  8
0
 62
   250
420
  1842203
370
     9
100
AcDbVertex
100
AcDb2dVertex
 10
199.0046939495537
 20
165.2604781749827
 30
0.0
  0
VERTEX
  5
E1
330
DF
100
AcDbEntity
  8
0
 62
   250
420
  1842203
370
     9
100
AcDbVertex
100
AcDb2dVertex
 10
199.0046939495537
 20
165.3180113075407
 30
0.0
  0
SEQEND
  5
E2
330
DF
100
AcDbEntity
  8
0
370
     9
  0
ENDBLK
  5
DE
330
DB
100
AcDbEntity
  8
0
100
AcDbBlockEnd
  0
BLOCK
  5
E5
330
E3
100
AcDbEntity
  8
0
100
AcDbBlockBegin
  2
block 21
 70
     0
 71
     0
 10
0.0
 20
0.0
 30
0.0
  3
block 21
  1

  0
POLYLINE
  5
E7
330
E3
100
AcDbEntity
  8
0
 62
   250
420
  1842203
370
     9
100
AcDb2dPolyline
 66
     1
 10
0.0
 20
0.0
 30
0.0
  0
VERTEX
  5
E8
330
E7
100
AcDbEntity
  8
0
 62
   250
420
  1842203
370
     9
100
AcDbVertex
100
AcDb2dVertex
 10
199.071873355834
 20
165.2604781749827
 30
0.0
  0
VERTEX
  5
E9
330
E7
100
AcDbEntity
  8
0
 62
   250
420
  1842203
370
     9
100
AcDbVertex
100
AcDb2dVertex
 10
199.071873355834
 20
165.2184479823356
 30
0.0
  0
SEQEND
  5
EA
330
E7
100
AcDbEntity
  8
0
370
     9
  0
ENDBLK
  5
E6
330
E3
100
AcDbEntity
  8
0
100
AcDbBlockEnd
  0
BLOCK
  5
ED
330
EB
100
AcDbEntity
  8
0
100
AcDbBlockBegin
  2
block 22
 70
     0
 71
     0
 10
0.0
 20
0.0
 30
0.0
  3
block 22
  1

  0
POLYLINE
  5
EF
330
EB
100
AcDbEntity
  8
0
 62
   250
420
  1842203
370
     9
100
AcDb2dPolyline
 66
     1
 10
0.0
 20
0.0
 30
0.0
  0
VERTEX
  5
F0
330
EF
100
AcDbEntity
  8
0
 62
   250
420
  1842203
370
     9
100
AcDbVertex
100
AcDb2dVertex
 10
199.0773855122467
 20
165.2184479823356
 30
0.0
  0
VERTEX
  5
F1
330
EF
100
AcDbEntity
  8
0
 62
   250
420
  1842203
370
     9
100
AcDbVertex
100
AcDb2dVertex
 10
199.0773855122467
 20
165.2453197448477
 30
0.0
  0
SEQEND
  5
F2
330
EF
100
AcDbEntity
  8
0
370
     9
  0
ENDBLK
  5
EE
330
EB
100
AcDbEntity
  8
0
100
AcDbBlockEnd
  0
BLOCK
  5
F5
330
F3
100
AcDbEntity
  8
0
100
AcDbBlockBegin
  2
block 23
 70
     0
 71
     0
 10
0.0
 20
0.0
 30
0.0
  3
block 23
  1

  0
POLYLINE
  5
F7
330
F3
100
AcDbEntity
  8
0
 62
   250
420
  1842203
370
     9
100
AcDb2dPolyline
 66
     1
 10
0.0
 20
0.0
 30
0.0
  0
VERTEX
  5
F8
330
F7
100
AcDbEntity
  8
0
 62
   250
420
  1842203
370
     9
100
AcDbVertex
100
AcDb2dVertex
 10
199.0813473746684
 20
164.7585274316477
 30
0.0
  0
VERTEX
  5
F9
330
F7
100
AcDbEntity
  8
0
 62
   250
420
  1842203
370
     9
100
AcDbVertex
100
AcDb2dVertex
 10
199.0813473746684
 20
164.8160605642057
 30
0.0
  0
SEQEND
  5
FA
330
F7
100
AcDbEntity
  8
0
370
     9
  0
ENDBLK
  5
F6
330
F3
100
AcDbEntity
  8
0
100
AcDbBlockEnd
  0
BLOCK
  5
FD
330
FB
100
AcDbEntity
  8
0
100
AcDbBlockBegin
  2
block 24
 70
     0
 71
     0
 10
0.0
 20
0.0
 30
0.0
  3
block 24
  1

  0
POLYLINE
  5
FF
330
FB
100
AcDbEntity
  8
0
 62
   250
420
  1842203
370
     9
100
AcDb2dPolyline
 66
     1
 10
0.0
 20
0.0
 30
0.0
  0
VERTEX
  5
100
330
FF
100
AcDbEntity
  8
0
 62
   250
420
  1842203
370
     9
100
AcDbVertex
100
AcDb2dVertex
 10
199.1330238410378
 20
165.3696877739101
 30
0.0
  0
VERTEX
  5
101
330
FF
100
AcDbEntity
  8
0
 62
   250
420
  1842203
370
     9
100
AcDbVertex
100
AcDb2dVertex
 10
199.1330238410378
 20
165.327657581263
 30
0.0
  0
SEQEND
  5
102
330
FF
100
AcDbEntity
  8
0
370
     9
  0
ENDBLK
  5
FE
330
FB
100
AcDbEntity
  8
0
100
AcDbBlockEnd
  0
BLOCK
  5
105
330
103
100
AcDbEntity
  8
0
100
AcDbBlockBegin
  2
block 25
 70
     0
 71
     0
 10
0.0
 20
0.0
 30
0.0
  3
block 25
  1

  0
POLYLINE
  5
107
330
103
100
AcDbEntity
  8
0
 62
   250
420
  1842203
370
     9
100
AcDb2dPolyline
 66
     1
 10
0.0
 20
0.0
 30
0.0
  0
VERTEX
  5
108
330
107
100
AcDbEntity
  8
0
 62
   250
420
  1842203
370
     9
100
AcDbVertex
100
AcDb2dVertex
 10
199.330427942569
 20
165.2797707224273
 30
0.0
  0
VERTEX
  5
109
330
107
100
AcDbEntity
  8
0
 62
   250
420
  1842203
370
     9
100
AcDbVertex
100
AcDb2dVertex
 10
199.330427942569
 20
165.3180113075407
 30
0.0
  0
SEQEND
  5
10A
330
107
100
AcDbEntity
  8
0
370
     9
  0
ENDBLK
  5
106
330
103
100
AcDbEntity
  8
0
100
AcDbBlockEnd
  0
BLOCK
  5
10D
330
10B
100
AcDbEntity
  8
0
100
AcDbBlockBegin
  2
block 26
 70
     0
 71
     0
 10
0.0
 20
0.0
 30
0.0
  3
block 26
  1

  0
POLYLINE
  5
10F
330
10B
100
AcDbEntity
  8
0
 62
   250
420
  1842203
370
     9
100
AcDb2dPolyline
 66
     1
 10
0.0
 20
0.0
 30
0.0
  0
VERTEX
  5
110
330
10F
100
AcDbEntity
  8
0
 62
   250
420
  1842203
370
     9
100
AcDbVertex
100
AcDb2dVertex
 10
199.0219194383436
 20
165.4051722808171
 30
0.0
  0
VERTEX
  5
111
330
10F
100
AcDbEntity
  8
0
 62
   250
420
  1842203
370
     9
100
AcDbVertex
100
AcDb2dVertex
 10
199.0208859090162
 20
165.3972485559738
 30
0.0
  0
SEQEND
  5
112
330
10F
100
AcDbEntity
  8
0
370
     9
  0
ENDBLK
  5
10E
330
10B
100
AcDbEntity
  8
0
100
AcDbBlockEnd
  0
BLOCK
  5
115
330
113
100
AcDbEntity
  8
0
100
AcDbBlockBegin
  2
block 27
 70
     0
 71
     0
 10
0.0
 20
0.0
 30
0.0
  3
block 27
  1

  0
POLYLINE
  5
117
330
113
100
AcDbEntity
  8
0
 62
   250
420
  1842203
370
     9
100
AcDb2dPolyline
 66
     1
 10
0.0
 20
0.0
 30
0.0
  0
VERTEX
  5
118
330
117
100
AcDbEntity
  8
0
 62
   250
420
  1842203
370
     9
100
AcDbVertex
100
AcDb2dVertex
 10
199.0784190415741
 20
165.3979375755254
 30
0.0
  0
VERTEX
  5
119
330
117
100
AcDbEntity
  8
0
 62
   250
420
  1842203
370
     9
100
AcDbVertex
100
AcDb2dVertex
 10
199.0784190415741
 20
165.3972485559738
 30
0.0
  0
SEQEND
  5
11A
330
117
100
AcDbEntity
  8
0
370
     9
  0
ENDBLK
  5
116
330
113
100
AcDbEntity
  8
0
100
AcDbBlockEnd
  0
BLOCK
  5
11D
330
11B
100
AcDbEntity
  8
0
100
AcDbBlockBegin
  2
block 28
 70
     0
 71
     0
 10
0.0
 20
0.0
 30
0.0
  3
block 28
  1

  0
POLYLINE
  5
11F
330
11B
100
AcDbEntity
  8
0
 62
   250
420
  1842203
370
     9
100
AcDb2dPolyline
 66
     1
 10
0.0
 20
0.0
 30
0.0
  0
VERTEX
  5
120
330
11F
100
AcDbEntity
  8
0
 62
   250
420
  1842203
370
     9
100
AcDbVertex
100
AcDb2dVertex
 10
198.9309688575334
 20
165.3972485559738
 30
0.0
  0
VERTEX
  5
121
330
11F
100
AcDbEntity
  8
0
 62
   250
420
  1842203
370
     9
100
AcDbVertex
100
AcDb2dVertex
 10
198.9309688575334
 20
165.3979375755254
 30
0.0
  0
SEQEND
  5
122
330
11F
100
AcDbEntity
  8
0
370
     9
  0
ENDBLK
  5
11E
330
11B
100
AcDbEntity
  8
0
100
AcDbBlockEnd
  0
BLOCK
  5
125
330
123
100
AcDbEntity
  8
0
100
AcDbBlockBegin
  2
block 29
 70
     0
 71
     0
 10
0.0
 20
0.0
 30
0.0
  3
block 29
  1

  0
POLYLINE
  5
127
330
123
100
AcDbEntity
  8
0
 62
   250
420
  1842203
370
     9
100
AcDb2dPolyline
 66
     1
 10
0.0
 20
0.0
 30
0.0
  0
VERTEX
  5
128
330
127
100
AcDbEntity
  8
0
 62
   250
420
  1842203
370
     9
100
AcDbVertex
100
AcDb2dVertex
 10
198.9883297352034
 20
165.3972485559738
 30
0.0
  0
VERTEX
  5
129
330
127
100
AcDbEntity
  8
0
 62
   250
420
  1842203
370
     9
100
AcDbVertex
100
AcDb2dVertex
 10
198.9876407156518
 20
165.4051722808171
 30
0.0
  0
SEQEND
  5
12A
330
127
100
AcDbEntity
  8
0
370
     9
  0
ENDBLK
  5
126
330
123
100
AcDbEntity
  8
0
100
AcDbBlockEnd
  0
BLOCK
  5
12D
330
12B
100
AcDbEntity
  8
0
100
AcDbBlockBegin
  2
block 30
 70
     0
 71
     0
 10
0.0
 20
0.0
 30
0.0
  3
block 30
  1

  0
POLYLINE
  5
12F
330
12B
100
AcDbEntity
  8
0
 62
   250
420
  1842203
370
     9
100
AcDb2dPolyline
 66
     1
 10
0.0
 20
0.0
 30
0.0
  0
VERTEX
  5
130
330
12F
100
AcDbEntity
  8
0
 62
   250
420
  1842203
370
     9
100
AcDbVertex
100
AcDb2dVertex
 10
199.5986288030263
 20
165.3907028702337
 30
0.0
  0
VERTEX
  5
131
330
12F
100
AcDbEntity
  8
0
 62
   250
420
  1842203
370
     9
100
AcDbVertex
100
AcDb2dVertex
 10
199.5986288030263
 20
165.2453197448477
 30
0.0
  0
SEQEND
  5
132
330
12F
100
AcDbEntity
  8
0
370
     9
  0
ENDBLK
  5
12E
330
12B
100
AcDbEntity
  8
0
100
AcDbBlockEnd
  0
BLOCK
  5
135
330
133
100
AcDbEntity
  8
0
100
AcDbBlockBegin
  2
block 31
 70
     0
 71
     0
 10
0.0
 20
0.0
 30
0.0
  3
block 31
  1

  0
POLYLINE
  5
137
330
133
100
AcDbEntity
  8
0
 62
   250
420
  1842203
370
     9
100
AcDb2dPolyline
 66
     1
 10
0.0
 20
0.0
 30
0.0
  0
VERTEX
  5
138
330
137
100
AcDbEntity
  8
0
 62
   250
420
  1842203
370
     9
100
AcDbVertex
100
AcDb2dVertex
 10
201.323244740662
 20
165.4344556117598
 30
0.0
  0
VERTEX
  5
139
330
137
100
AcDbEntity
  8
0
 62
   250
420
  1842203
370
     9
100
AcDbVertex
100
AcDb2dVertex
 10
201.323244740662
 20
165.2184479823356
 30
0.0
  0
SEQEND
  5
13A
330
137
100
AcDbEntity
  8
0
370
     9
  0
ENDBLK
  5
136
330
133
100
AcDbEntity
  8
0
100
AcDbBlockEnd
  0
BLOCK
  5
13D
330
13B
100
AcDbEntity
  8
0
100
AcDbBlockBegin
  2
block 32
 70
     0
 71
     0
 10
0.0
 20
0.0
 30
0.0
  3
block 32
  1

  0
POLYLINE
  5
13F
330
13B
100
AcDbEntity
  8
0
 62
   250
420
  1842203
370
     9
100
AcDb2dPolyline
 66
     1
 10
0.0
 20
0.0
 30
0.0
  0
VERTEX
  5
140
330
13F
100
AcDbEntity
  8
0
 62
   250
420
  1842203
370
     9
100
AcDbVertex
100
AcDb2dVertex
 10
201.380605618332
 20
165.4403122779483
 30
0.0
  0
VERTEX
  5
141
330
13F
100
AcDbEntity
  8
0
 62
   250
420
  1842203
370
     9
100
AcDbVertex
100
AcDb2dVertex
 10
201.380605618332
 20
165.3755444400986
 30
0.0
  0
SEQEND
  5
142
330
13F
100
AcDbEntity
  8
0
370
     9
  0
ENDBLK
  5
13E
330
13B
100
AcDbEntity
  8
0
100
AcDbBlockEnd
  0
BLOCK
  5
145
330
143
100
AcDbEntity
  8
0
100
AcDbBlockBegin
  2
block 33
 70
     0
 71
     0
 10
0.0
 20
0.0
 30
0.0
  3
block 33
  1

  0
POLYLINE
  5
147
330
143
100
AcDbEntity
  8
0
 62
   250
420
  1842203
370
     9
100
AcDb2dPolyline
 66
     1
 10
0.0
 20
0.0
 30
0.0
  0
VERTEX
  5
148
330
147
100
AcDbEntity
  8
0
 62
   250
420
  1842203
370
     9
100
AcDbVertex
100
AcDb2dVertex
 10
201.380605618332
 20
165.2604781749827
 30
0.0
  0
VERTEX
  5
149
330
147
100
AcDbEntity
  8
0
 62
   250
420
  1842203
370
     9
100
AcDbVertex
100
AcDb2dVertex
 10
201.380605618332
 20
165.2184479823356
 30
0.0
  0
SEQEND
  5
14A
330
147
100
AcDbEntity
  8
0
370
     9
  0
ENDBLK
  5
146
330
143
100
AcDbEntity
  8
0
100
AcDbBlockEnd
  0
BLOCK
  5
14D
330
14B
100
AcDbEntity
  8
0
100
AcDbBlockBegin
  2
block 34
 70
     0
 71
     0
 10
0.0
 20
0.0
 30
0.0
  3
block 34
  1

  0
POLYLINE
  5
14F
330
14B
100
AcDbEntity
  8
0
 62
   250
420
  1842203
370
     9
100
AcDb2dPolyline
 66
     1
 10
0.0
 20
0.0
 30
0.0
  0
VERTEX
  5
150
330
14F
100
AcDbEntity
  8
0
 62
   250
420
  1842203
370
     9
100
AcDbVertex
100
AcDb2dVertex
 10
201.4190184583333
 20
165.4444463952579
 30
0.0
  0
VERTEX
  5
151
330
14F
100
AcDbEntity
  8
0
 62
   250
420
  1842203
370
     9
100
AcDbVertex
100
AcDb2dVertex
 10
201.4190184583333
 20
165.3755444400986
 30
0.0
  0
SEQEND
  5
152
330
14F
100
AcDbEntity
  8
0
370
     9
  0
ENDBLK
  5
14E
330
14B
100
AcDbEntity
  8
0
100
AcDbBlockEnd
  0
BLOCK
  5
155
330
153
100
AcDbEntity
  8
0
100
AcDbBlockBegin
  2
block 35
 70
     0
 71
     0
 10
0.0
 20
0.0
 30
0.0
  3
block 35
  1

  0
POLYLINE
  5
157
330
153
100
AcDbEntity
  8
0
 62
   250
420
  1842203
370
     9
100
AcDb2dPolyline
 66
     1
 10
0.0
 20
0.0
 30
0.0
  0
VERTEX
  5
158
330
157
100
AcDbEntity
  8
0
 62
   250
420
  1842203
370
     9
100
AcDbVertex
100
AcDb2dVertex
 10
201.4190184583333
 20
165.2604781749827
 30
0.0
  0
VERTEX
  5
159
330
157
100
AcDbEntity
  8
0
 62
   250
420
  1842203
370
     9
100
AcDbVertex
100
AcDb2dVertex
 10
201.4190184583333
 20
165.2184479823356
 30
0.0
  0
SEQEND
  5
15A
330
157
100
AcDbEntity
  8
0
370
     9
  0
ENDBLK
  5
156
330
153
100
AcDbEntity
  8
0
100
AcDbBlockEnd
  0
BLOCK
  5
15D
330
15B
100
AcDbEntity
  8
0
100
AcDbBlockBegin
  2
block 36
 70
     0
 71
     0
 10
0.0
 20
0.0
 30
0.0
  3
block 36
  1

  0
POLYLINE
  5
15F
330
15B
100
AcDbEntity
  8
0
 62
   250
420
  1842203
370
     9
100
AcDb2dPolyline
 66
     1
 10
0.0
 20
0.0
 30
0.0
  0
VERTEX
  5
160
330
15F
100
AcDbEntity
  8
0
 62
   250
420
  1842203
370
     9
100
AcDbVertex
100
AcDb2dVertex
 10
201.495671883448
 20
165.452714629877
 30
0.0
  0
VERTEX
  5
161
330
15F
100
AcDbEntity
  8
0
 62
   250
420
  1842203
370
     9
100
AcDbVertex
100
AcDb2dVertex
 10
201.495671883448
 20
165.3755444400986
 30
0.0
  0
SEQEND
  5
162
330
15F
100
AcDbEntity
  8
0
370
     9
  0
ENDBLK
  5
15E
330
15B
100
AcDbEntity
  8
0
100
AcDbBlockEnd
  0
BLOCK
  5
165
330
163
100
AcDbEntity
  8
0
100
AcDbBlockBegin
  2
block 37
 70
     0
 71
     0
 10
0.0
 20
0.0
 30
0.0
  3
block 37
  1

  0
POLYLINE
  5
167
330
163
100
AcDbEntity
  8
0
 62
   250
420
  1842203
370
     9
100
AcDb2dPolyline
 66
     1
 10
0.0
 20
0.0
 30
0.0
  0
VERTEX
  5
168
330
167
100
AcDbEntity
  8
0
 62
   250
420
  1842203
370
     9
100
AcDbVertex
100
AcDb2dVertex
 10
201.495671883448
 20
165.2604781749827
 30
0.0
  0
VERTEX
  5
169
330
167
100
AcDbEntity
  8
0
 62
   250
420
  1842203
370
     9
100
AcDbVertex
100
AcDb2dVertex
 10
201.495671883448
 20
165.2184479823356
 30
0.0
  0
SEQEND
  5
16A
330
167
100
AcDbEntity
  8
0
370
     9
  0
ENDBLK
  5
166
330
163
100
AcDbEntity
  8
0
100
AcDbBlockEnd
  0
BLOCK
  5
16D
330
16B
100
AcDbEntity
  8
0
100
AcDbBlockBegin
  2
block 38
 70
     0
 71
     0
 10
0.0
 20
0.0
 30
0.0
  3
block 38
  1

  0
POLYLINE
  5
16F
330
16B
100
AcDbEntity
  8
0
 62
   250
420
  1842203
370
     9
100
AcDb2dPolyline
 66
     1
 10
0.0
 20
0.0
 30
0.0
  0
VERTEX
  5
170
330
16F
100
AcDbEntity
  8
0
 62
   250
420
  1842203
370
     9
100
AcDbVertex
100
AcDb2dVertex
 10
201.5337402136734
 20
165.4565042374107
 30
0.0
  0
VERTEX
  5
171
330
16F
100
AcDbEntity
  8
0
 62
   250
420
  1842203
370
     9
100
AcDbVertex
100
AcDb2dVertex
 10
201.5337402136734
 20
165.3755444400986
 30
0.0
  0
SEQEND
  5
172
330
16F
100
AcDbEntity
  8
0
370
     9
  0
ENDBLK
  5
16E
330
16B
100
AcDbEntity
  8
0
100
AcDbBlockEnd
  0
BLOCK
  5
175
330
173
100
AcDbEntity
  8
0
100
AcDbBlockBegin
  2
block 39
 70
     0
 71
     0
 10
0.0
 20
0.0
 30
0.0
  3
block 39
  1

  0
POLYLINE
  5
177
330
173
100
AcDbEntity
  8
0
 62
   250
420
  1842203
370
     9
100
AcDb2dPolyline
 66
     1
 10
0.0
 20
0.0
 30
0.0
  0
VERTEX
  5
178
330
177
100
AcDbEntity
  8
0
 62
   250
420
  1842203
370
     9
100
AcDbVertex
100
AcDb2dVertex
 10
201.5337402136734
 20
165.2604781749827
 30
0.0
  0
VERTEX
  5
179
330
177
100
AcDbEntity
  8
0
 62
   250
420
  1842203
370
     9
100
AcDbVertex
100
AcDb2dVertex
 10
201.5337402136734
 20
165.2184479823356
 30
0.0
  0
SEQEND
  5
17A
330
177
100
AcDbEntity
  8
0
370
     9
  0
ENDBLK
  5
176
330
173
100
AcDbEntity
  8
0
100
AcDbBlockEnd
  0
BLOCK
  5
17D
330
17B
100
AcDbEntity
  8
0
100
AcDbBlockBegin
  2
block 40
 70
     0
 71
     0
 10
0.0
 20
0.0
 30
0.0
  3
block 40
  1

  0
POLYLINE
  5
17F
330
17B
100
AcDbEntity
  8
0
 62
   250
420
  1842203
370
     9
100
AcDb2dPolyline
 66
     1
 10
0.0
 20
0.0
 30
0.0
  0
VERTEX
  5
180
330
17F
100
AcDbEntity
  8
0
 62
   250
420
  1842203
370
     9
100
AcDbVertex
100
AcDb2dVertex
 10
201.610565893676
 20
165.4647724720298
 30
0.0
  0
VERTEX
  5
181
330
17F
100
AcDbEntity
  8
0
 62
   250
420
  1842203
370
     9
100
AcDbVertex
100
AcDb2dVertex
 10
201.610565893676
 20
165.3755444400986
 30
0.0
  0
SEQEND
  5
182
330
17F
100
AcDbEntity
  8
0
370
     9
  0
ENDBLK
  5
17E
330
17B
100
AcDbEntity
  8
0
100
AcDbBlockEnd
  0
BLOCK
  5
185
330
183
100
AcDbEntity
  8
0
100
AcDbBlockBegin
  2
block 41
 70
     0
 71
     0
 10
0.0
 20
0.0
 30
0.0
  3
block 41
  1

  0
POLYLINE
  5
187
330
183
100
AcDbEntity
  8
0
 62
   250
420
  1842203
370
     9
100
AcDb2dPolyline
 66
     1
 10
0.0
 20
0.0
 30
0.0
  0
VERTEX
  5
188
330
187
100
AcDbEntity
  8
0
 62
   250
420
  1842203
370
     9
100
AcDbVertex
100
AcDb2dVertex
 10
201.610565893676
 20
165.2604781749827
 30
0.0
  0
VERTEX
  5
189
330
187
100
AcDbEntity
  8
0
 62
   250
420
  1842203
370
     9
100
AcDbVertex
100
AcDb2dVertex
 10
201.610565893676
 20
165.2184479823356
 30
0.0
  0
SEQEND
  5
18A
330
187
100
AcDbEntity
  8
0
370
     9
  0
ENDBLK
  5
186
330
183
100
AcDbEntity
  8
0
100
AcDbBlockEnd
  0
BLOCK
  5
18D
330
18B
100
AcDbEntity
  8
0
100
AcDbBlockBegin
  2
block 42
 70
     0
 71
     0
 10
0.0
 20
0.0
 30
0.0
  3
block 42
  1

  0
POLYLINE
  5
18F
330
18B
100
AcDbEntity
  8
0
 62
   250
420
  1842203
370
     9
100
AcDb2dPolyline
 66
     1
 10
0.0
 20
0.0
 30
0.0
  0
VERTEX
  5
190
330
18F
100
AcDbEntity
  8
0
 62
   250
420
  1842203
370
     9
100
AcDbVertex
100
AcDb2dVertex
 10
201.6489787336772
 20
165.4685620795636
 30
0.0
  0
VERTEX
  5
191
330
18F
100
AcDbEntity
  8
0
 62
   250
420
  1842203
370
     9
100
AcDbVertex
100
AcDb2dVertex
 10
201.6489787336772
 20
165.3755444400986
 30
0.0
  0
SEQEND
  5
192
330
18F
100
AcDbEntity
  8
0
370
     9
  0
ENDBLK
  5
18E
330
18B
100
AcDbEntity
  8
0
100
AcDbBlockEnd
  0
BLOCK
  5
195
330
193
100
AcDbEntity
  8
0
100
AcDbBlockBegin
  2
block 43
 70
     0
 71
     0
 10
0.0
 20
0.0
 30
0.0
  3
block 43
  1

  0
POLYLINE
  5
197
330
193
100
AcDbEntity
  8
0
 62
   250
420
  1842203
370
     9
100
AcDb2dPolyline
 66
     1
 10
0.0
 20
0.0
 30
0.0
  0
VERTEX
  5
198
330
197
100
AcDbEntity
  8
0
 62
   250
420
  1842203
370
     9
100
AcDbVertex
100
AcDb2dVertex
 10
201.6489787336772
 20
165.2604781749827
 30
0.0
  0
VERTEX
  5
199
330
197
100
AcDbEntity
  8
0
 62
   250
420
  1842203
370
     9
100
AcDbVertex
100
AcDb2dVertex
 10
201.6489787336772
 20
165.2184479823356
 30
0.0
  0
SEQEND
  5
19A
330
197
100
AcDbEntity
  8
0
370
     9
  0
ENDBLK
  5
196
330
193
100
AcDbEntity
  8
0
100
AcDbBlockEnd
  0
BLOCK
  5
19D
330
19B
100
AcDbEntity
  8
0
100
AcDbBlockBegin
  2
block 44
 70
     0
 71
     0
 10
0.0
 20
0.0
 30
0.0
  3
block 44
  1

  0
POLYLINE
  5
19F
330
19B
100
AcDbEntity
  8
0
 62
   250
420
  1842203
370
     9
100
AcDb2dPolyline
 66
     1
 10
0.0
 20
0.0
 30
0.0
  0
VERTEX
  5
1A0
330
19F
100
AcDbEntity
  8
0
 62
   250
420
  1842203
370
     9
100
AcDbVertex
100
AcDb2dVertex
 10
201.7256321587919
 20
165.4764858044069
 30
0.0
  0
VERTEX
  5
1A1
330
19F
100
AcDbEntity
  8
0
 62
   250
420
  1842203
370
     9
100
AcDbVertex
100
AcDb2dVertex
 10
201.7256321587919
 20
165.3755444400986
 30
0.0
  0
SEQEND
  5
1A2
330
19F
100
AcDbEntity
  8
0
370
     9
  0
ENDBLK
  5
19E
330
19B
100
AcDbEntity
  8
0
100
AcDbBlockEnd
  0
BLOCK
  5
1A5
330
1A3
100
AcDbEntity
  8
0
100
AcDbBlockBegin
  2
block 45
 70
     0
 71
     0
 10
0.0
 20
0.0
 30
0.0
  3
block 45
  1

  0
POLYLINE
  5
1A7
330
1A3
100
AcDbEntity
  8
0
 62
   250
420
  1842203
370
     9
100
AcDb2dPolyline
 66
     1
 10
0.0
 20
0.0
 30
0.0
  0
VERTEX
  5
1A8
330
1A7
100
AcDbEntity
  8
0
 62
   250
420
  1842203
370
     9
100
AcDbVertex
100
AcDb2dVertex
 10
201.7256321587919
 20
165.2604781749827
 30
0.0
  0
VERTEX
  5
1A9
330
1A7
100
AcDbEntity
  8
0
 62
   250
420
  1842203
370
     9
100
AcDbVertex
100
AcDb2dVertex
 10
201.7256321587919
 20
165.2184479823356
 30
0.0
  0
SEQEND
  5
1AA
330
1A7
100
AcDbEntity
  8
0
370
     9
  0
ENDBLK
  5
1A6
330
1A3
100
AcDbEntity
  8
0
100
AcDbBlockEnd
  0
BLOCK
  5
1AD
330
1AB
100
AcDbEntity
  8
0
100
AcDbBlockBegin
  2
block 46
 70
     0
 71
     0
 10
0.0
 20
0.0
 30
0.0
  3
block 46
  1

  0
POLYLINE
  5
1AF
330
1AB
100
AcDbEntity
  8
0
 62
   250
420
  1842203
370
     9
100
AcDb2dPolyline
 66
     1
 10
0.0
 20
0.0
 30
0.0
  0
VERTEX
  5
1B0
330
1AF
100
AcDbEntity
  8
0
 62
   250
420
  1842203
370
     9
100
AcDbVertex
100
AcDb2dVertex
 10
201.7638727439053
 20
165.4809644314923
 30
0.0
  0
VERTEX
  5
1B1
330
1AF
100
AcDbEntity
  8
0
 62
   250
420
  1842203
370
     9
100
AcDbVertex
100
AcDb2dVertex
 10
201.7638727439053
 20
165.3755444400986
 30
0.0
  0
SEQEND
  5
1B2
330
1AF
100
AcDbEntity
  8
0
370
     9
  0
ENDBLK
  5
1AE
330
1AB
100
AcDbEntity
  8
0
100
AcDbBlockEnd
  0
BLOCK
  5
1B5
330
1B3
100
AcDbEntity
  8
0
100
AcDbBlockBegin
  2
block 47
 70
     0
 71
     0
 10
0.0
 20
0.0
 30
0.0
  3
block 47
  1

  0
POLYLINE
  5
1B7
330
1B3
100
AcDbEntity
  8
0
 62
   250
420
  1842203
370
     9
100
AcDb2dPolyline
 66
     1
 10
0.0
 20
0.0
 30
0.0
  0
VERTEX
  5
1B8
330
1B7
100
AcDbEntity
  8
0
 62
   250
420
  1842203
370
     9
100
AcDbVertex
100
AcDb2dVertex
 10
201.7638727439053
 20
165.2604781749827
 30
0.0
  0
VERTEX
  5
1B9
330
1B7
100
AcDbEntity
  8
0
 62
   250
420
  1842203
370
     9
100
AcDbVertex
100
AcDb2dVertex
 10
201.7638727439053
 20
165.2184479823356
 30
0.0
  0
SEQEND
  5
1BA
330
1B7
100
AcDbEntity
  8
0
370
     9
  0
ENDBLK
  5
1B6
330
1B3
100
AcDbEntity
  8
0
100
AcDbBlockEnd
  0
BLOCK
  5
1BD
330
1BB
100
AcDbEntity
  8
0
100
AcDbBlockBegin
  2
block 48
 70
     0
 71
     0
 10
0.0
 20
0.0
 30
0.0
  3
block 48
  1

  0
POLYLINE
  5
1BF
330
1BB
100
AcDbEntity
  8
0
 62
   250
420
  1842203
370
     9
100
AcDb2dPolyline
 66
     1
 10
0.0
 20
0.0
 30
0.0
  0
VERTEX
  5
1C0
330
1BF
100
AcDbEntity
  8
0
 62
   250
420
  1842203
370
     9
100
AcDbVertex
100
AcDb2dVertex
 10
201.782993036462
 20
165.4826869803712
 30
0.0
  0
VERTEX
  5
1C1
330
1BF
100
AcDbEntity
  8
0
 62
   250
420
  1842203
370
     9
100
AcDbVertex
100
AcDb2dVertex
 10
201.782993036462
 20
165.2184479823356
 30
0.0
  0
SEQEND
  5
1C2
330
1BF
100
AcDbEntity
  8
0
370
     9
  0
ENDBLK
  5
1BE
330
1BB
100
AcDbEntity
  8
0
100
AcDbBlockEnd
  0
BLOCK
  5
1C5
330
1C3
100
AcDbEntity
  8
0
100
AcDbBlockBegin
  2
block 49
 70
     0
 71
     0
 10
0.0
 20
0.0
 30
0.0
  3
block 49
  1

  0
POLYLINE
  5
1C7
330
1C3
100
AcDbEntity
  8
0
 62
   250
420
  1842203
370
     9
100
AcDb2dPolyline
 66
     1
 10
0.0
 20
0.0
 30
0.0
  0
VERTEX
  5
1C8
330
1C7
100
AcDbEntity
  8
0
 62
   250
420
  1842203
370
     9
100
AcDbVertex
100
AcDb2dVertex
 10
199.288225495034
 20
165.2184479823356
 30
0.0
  0
VERTEX
  5
1C9
330
1C7
100
AcDbEntity
  8
0
 62
   250
420
  1842203
370
     9
100
AcDbVertex
100
AcDb2dVertex
 10
199.3070012778149
 20
165.2453197448477
 30
0.0
  0
SEQEND
  5
1CA
330
1C7
100
AcDbEntity
  8
0
370
     9
  0
ENDBLK
  5
1C6
330
1C3
100
AcDbEntity
  8
0
100
AcDbBlockEnd
  0
BLOCK
  5
1CD
330
1CB
100
AcDbEntity
  8
0
100
AcDbBlockBegin
  2
block 50
 70
     0
 71
     0
 10
0.0
 20
0.0
 30
0.0
  3
block 50
  1

  0
POLYLINE
  5
1CF
330
1CB
100
AcDbEntity
  8
0
 62
   250
420
  1842203
370
     9
100
AcDb2dPolyline
 66
     1
 10
0.0
 20
0.0
 30
0.0
  0
VERTEX
  5
1D0
330
1CF
100
AcDbEntity
  8
0
 62
   250
420
  1842203
370
     9
100
AcDbVertex
100
AcDb2dVertex
 10
199.4088039165626
 20
165.3907028702337
 30
0.0
  0
VERTEX
  5
1D1
330
1CF
100
AcDbEntity
  8
0
 62
   250
420
  1842203
370
     9
100
AcDbVertex
100
AcDb2dVertex
 10
199.4382595023932
 20
165.432388553105
 30
0.0
  0
SEQEND
  5
1D2
330
1CF
100
AcDbEntity
  8
0
370
     9
  0
ENDBLK
  5
1CE
330
1CB
100
AcDbEntity
  8
0
100
AcDbBlockEnd
  0
BLOCK
  5
1D5
330
1D3
100
AcDbEntity
  8
0
100
AcDbBlockBegin
  2
block 51
 70
     0
 71
     0
 10
0.0
 20
0.0
 30
0.0
  3
block 51
  1

  0
POLYLINE
  5
1D7
330
1D3
100
AcDbEntity
  8
0
 62
   250
420
  1842203
370
     9
100
AcDb2dPolyline
 66
     1
 10
0.0
 20
0.0
 30
0.0
  0
VERTEX
  5
1D8
330
1D7
100
AcDbEntity
  8
0
 62
   250
420
  1842203
370
     9
100
AcDbVertex
100
AcDb2dVertex
 10
199.4765000875066
 20
165.4875101172324
 30
0.0
  0
VERTEX
  5
1D9
330
1D7
100
AcDbEntity
  8
0
 62
   250
420
  1842203
370
     9
100
AcDbVertex
100
AcDb2dVertex
 10
199.5708957660748
 20
165.6222134395687
 30
0.0
  0
SEQEND
  5
1DA
330
1D7
100
AcDbEntity
  8
0
370
     9
  0
ENDBLK
  5
1D6
330
1D3
100
AcDbEntity
  8
0
100
AcDbBlockEnd
  0
BLOCK
  5
1DD
330
1DB
100
AcDbEntity
  8
0
100
AcDbBlockBegin
  2
block 52
 70
     0
 71
     0
 10
0.0
 20
0.0
 30
0.0
  3
block 52
  1

  0
POLYLINE
  5
1DF
330
1DB
100
AcDbEntity
  8
0
 62
   250
420
  1842203
370
     9
100
AcDb2dPolyline
 66
     1
 10
0.0
 20
0.0
 30
0.0
  0
VERTEX
  5
1E0
330
1DF
100
AcDbEntity
  8
0
 62
   250
420
  1842203
370
     9
100
AcDbVertex
100
AcDb2dVertex
 10
201.9362998866912
 20
165.5226501143636
 30
0.0
  0
VERTEX
  5
1E1
330
1DF
100
AcDbEntity
  8
0
 62
   250
420
  1842203
370
     9
100
AcDbVertex
100
AcDb2dVertex
 10
201.9362998866912
 20
165.2184479823356
 30
0.0
  0
SEQEND
  5
1E2
330
1DF
100
AcDbEntity
  8
0
370
     9
  0
ENDBLK
  5
1DE
330
1DB
100
AcDbEntity
  8
0
100
AcDbBlockEnd
  0
BLOCK
  5
1E5
330
1E3
100
AcDbEntity
  8
0
100
AcDbBlockBegin
  2
block 53
 70
     0
 71
     0
 10
0.0
 20
0.0
 30
0.0
  3
block 53
  1

  0
POLYLINE
  5
1E7
330
1E3
100
AcDbEntity
  8
0
 62
   250
420
  1842203
370
     9
100
AcDb2dPolyline
 66
     1
 10
0.0
 20
0.0
 30
0.0
  0
VERTEX
  5
1E8
330
1E7
100
AcDbEntity
  8
0
 62
   250
420
  1842203
370
     9
100
AcDbVertex
100
AcDb2dVertex
 10
202.0417198780849
 20
165.5264397218974
 30
0.0
  0
VERTEX
  5
1E9
330
1E7
100
AcDbEntity
  8
0
 62
   250
420
  1842203
370
     9
100
AcDbVertex
100
AcDb2dVertex
 10
202.0417198780849
 20
165.2184479823356
 30
0.0
  0
SEQEND
  5
1EA
330
1E7
100
AcDbEntity
  8
0
370
     9
  0
ENDBLK
  5
1E6
330
1E3
100
AcDbEntity
  8
0
100
AcDbBlockEnd
  0
BLOCK
  5
1ED
330
1EB
100
AcDbEntity
  8
0
100
AcDbBlockBegin
  2
block 54
 70
     0
 71
     0
 10
0.0
 20
0.0
 30
0.0
  3
block 54
  1

  0
POLYLINE
  5
1EF
330
1EB
100
AcDbEntity
  8
0
 62
   250
420
  1842203
370
     9
100
AcDb2dPolyline
 66
     1
 10
0.0
 20
0.0
 30
0.0
  0
VERTEX
  5
1F0
330
1EF
100
AcDbEntity
  8
0
 62
   250
420
  1842203
370
     9
100
AcDbVertex
100
AcDb2dVertex
 10
202.0608401706416
 20
165.5267842316731
 30
0.0
  0
VERTEX
  5
1F1
330
1EF
100
AcDbEntity
  8
0
 62
   250
420
  1842203
370
     9
100
AcDbVertex
100
AcDb2dVertex
 10
202.0608401706416
 20
165.2184479823356
 30
0.0
  0
SEQEND
  5
1F2
330
1EF
100
AcDbEntity
  8
0
370
     9
  0
ENDBLK
  5
1EE
330
1EB
100
AcDbEntity
  8
0
100
AcDbBlockEnd
  0
BLOCK
  5
1F5
330
1F3
100
AcDbEntity
  8
0
100
AcDbBlockBegin
  2
block 55
 70
     0
 71
     0
 10
0.0
 20
0.0
 30
0.0
  3
block 55
  1

  0
POLYLINE
  5
1F7
330
1F3
100
AcDbEntity
  8
0
 62
   250
420
  1842203
370
     9
100
AcDb2dPolyline
 66
     1
 10
0.0
 20
0.0
 30
0.0
  0
VERTEX
  5
1F8
330
1F7
100
AcDbEntity
  8
0
 62
   250
420
  1842203
370
     9
100
AcDbVertex
100
AcDb2dVertex
 10
202.1566138883129
 20
165.5302293294311
 30
0.0
  0
VERTEX
  5
1F9
330
1F7
100
AcDbEntity
  8
0
 62
   250
420
  1842203
370
     9
100
AcDbVertex
100
AcDb2dVertex
 10
202.1566138883129
 20
165.2184479823356
 30
0.0
  0
SEQEND
  5
1FA
330
1F7
100
AcDbEntity
  8
0
370
     9
  0
ENDBLK
  5
1F6
330
1F3
100
AcDbEntity
  8
0
100
AcDbBlockEnd
  0
BLOCK
  5
1FD
330
1FB
100
AcDbEntity
  8
0
100
AcDbBlockBegin
  2
block 56
 70
     0
 71
     0
 10
0.0
 20
0.0
 30
0.0
  3
block 56
  1

  0
POLYLINE
  5
1FF
330
1FB
100
AcDbEntity
  8
0
 62
   250
420
  1842203
370
     9
100
AcDb2dPolyline
 66
     1
 10
0.0
 20
0.0
 30
0.0
  0
VERTEX
  5
200
330
1FF
100
AcDbEntity
  8
0
 62
   250
420
  1842203
370
     9
100
AcDbVertex
100
AcDb2dVertex
 10
202.1759064357575
 20
165.5309183489827
 30
0.0
  0
VERTEX
  5
201
330
1FF
100
AcDbEntity
  8
0
 62
   250
420
  1842203
370
     9
100
AcDbVertex
100
AcDb2dVertex
 10
202.1759064357575
 20
165.2184479823356
 30
0.0
  0
SEQEND
  5
202
330
1FF
100
AcDbEntity
  8
0
370
     9
  0
ENDBLK
  5
1FE
330
1FB
100
AcDbEntity
  8
0
100
AcDbBlockEnd
  0
BLOCK
  5
205
330
203
100
AcDbEntity
  8
0
100
AcDbBlockBegin
  2
block 57
 70
     0
 71
     0
 10
0.0
 20
0.0
 30
0.0
  3
block 57
  1

  0
POLYLINE
  5
207
330
203
100
AcDbEntity
  8
0
 62
   250
420
  1842203
370
     9
100
AcDb2dPolyline
 66
     1
 10
0.0
 20
0.0
 30
0.0
  0
VERTEX
  5
208
330
207
100
AcDbEntity
  8
0
 62
   250
420
  1842203
370
     9
100
AcDbVertex
100
AcDb2dVertex
 10
202.3867464185447
 20
165.5381530542744
 30
0.0
  0
VERTEX
  5
209
330
207
100
AcDbEntity
  8
0
 62
   250
420
  1842203
370
     9
100
AcDbVertex
100
AcDb2dVertex
 10
202.3867464185447
 20
165.2184479823356
 30
0.0
  0
SEQEND
  5
20A
330
207
100
AcDbEntity
  8
0
370
     9
  0
ENDBLK
  5
206
330
203
100
AcDbEntity
  8
0
100
AcDbBlockEnd
  0
BLOCK
  5
20D
330
20B
100
AcDbEntity
  8
0
100
AcDbBlockBegin
  2
block 58
 70
     0
 71
     0
 10
0.0
 20
0.0
 30
0.0
  3
block 58
  1

  0
POLYLINE
  5
20F
330
20B
100
AcDbEntity
  8
0
 62
   250
420
  1842203
370
     9
100
AcDb2dPolyline
 66
     1
 10
0.0
 20
0.0
 30
0.0
  0
VERTEX
  5
210
330
20F
100
AcDbEntity
  8
0
 62
   250
420
  1842203
370
     9
100
AcDbVertex
100
AcDb2dVertex
 10
202.4058667111014
 20
165.538842073826
 30
0.0
  0
VERTEX
  5
211
330
20F
100
AcDbEntity
  8
0
 62
   250
420
  1842203
370
     9
100
AcDbVertex
100
AcDb2dVertex
 10
202.4058667111014
 20
165.2184479823356
 30
0.0
  0
SEQEND
  5
212
330
20F
100
AcDbEntity
  8
0
370
     9
  0
ENDBLK
  5
20E
330
20B
100
AcDbEntity
  8
0
100
AcDbBlockEnd
  0
BLOCK
  5
215
330
213
100
AcDbEntity
  8
0
100
AcDbBlockBegin
  2
block 59
 70
     0
 71
     0
 10
0.0
 20
0.0
 30
0.0
  3
block 59
  1

  0
POLYLINE
  5
217
330
213
100
AcDbEntity
  8
0
 62
   250
420
  1842203
370
     9
100
AcDb2dPolyline
 66
     1
 10
0.0
 20
0.0
 30
0.0
  0
VERTEX
  5
218
330
217
100
AcDbEntity
  8
0
 62
   250
420
  1842203
370
     9
100
AcDbVertex
100
AcDb2dVertex
 10
202.5014681738849
 20
165.542287171584
 30
0.0
  0
VERTEX
  5
219
330
217
100
AcDbEntity
  8
0
 62
   250
420
  1842203
370
     9
100
AcDbVertex
100
AcDb2dVertex
 10
202.5014681738849
 20
165.2184479823356
 30
0.0
  0
SEQEND
  5
21A
330
217
100
AcDbEntity
  8
0
370
     9
  0
ENDBLK
  5
216
330
213
100
AcDbEntity
  8
0
100
AcDbBlockEnd
  0
BLOCK
  5
21D
330
21B
100
AcDbEntity
  8
0
100
AcDbBlockBegin
  2
block 60
 70
     0
 71
     0
 10
0.0
 20
0.0
 30
0.0
  3
block 60
  1

  0
POLYLINE
  5
21F
330
21B
100
AcDbEntity
  8
0
 62
   250
420
  1842203
370
     9
100
AcDb2dPolyline
 66
     1
 10
0.0
 20
0.0
 30
0.0
  0
VERTEX
  5
220
330
21F
100
AcDbEntity
  8
0
 62
   250
420
  1842203
370
     9
100
AcDbVertex
100
AcDb2dVertex
 10
202.5207607213295
 20
165.5429761911356
 30
0.0
  0
VERTEX
  5
221
330
21F
100
AcDbEntity
  8
0
 62
   250
420
  1842203
370
     9
100
AcDbVertex
100
AcDb2dVertex
 10
202.5207607213295
 20
165.2184479823356
 30
0.0
  0
SEQEND
  5
222
330
21F
100
AcDbEntity
  8
0
370
     9
  0
ENDBLK
  5
21E
330
21B
100
AcDbEntity
  8
0
100
AcDbBlockEnd
  0
BLOCK
  5
225
330
223
100
AcDbEntity
  8
0
100
AcDbBlockBegin
  2
block 61
 70
     0
 71
     0
 10
0.0
 20
0.0
 30
0.0
  3
block 61
  1

  0
POLYLINE
  5
227
330
223
100
AcDbEntity
  8
0
 62
   250
420
  1842203
370
     9
100
AcDb2dPolyline
 66
     1
 10
0.0
 20
0.0
 30
0.0
  0
VERTEX
  5
228
330
227
100
AcDbEntity
  8
0
 62
   250
420
  1842203
370
     9
100
AcDbVertex
100
AcDb2dVertex
 10
199.9328032855486
 20
165.6222134395687
 30
0.0
  0
VERTEX
  5
229
330
227
100
AcDbEntity
  8
0
 62
   250
420
  1842203
370
     9
100
AcDbVertex
100
AcDb2dVertex
 10
200.0950673899486
 20
165.3907028702337
 30
0.0
  0
SEQEND
  5
22A
330
227
100
AcDbEntity
  8
0
370
     9
  0
ENDBLK
  5
226
330
223
100
AcDbEntity
  8
0
100
AcDbBlockEnd
  0
BLOCK
  5
22D
330
22B
100
AcDbEntity
  8
0
100
AcDbBlockBegin
  2
block 62
 70
     0
 71
     0
 10
0.0
 20
0.0
 30
0.0
  3
block 62
  1

  0
POLYLINE
  5
22F
330
22B
100
AcDbEntity
  8
0
 62
   250
420
  1842203
370
     9
100
AcDb2dPolyline
 66
     1
 10
0.0
 20
0.0
 30
0.0
  0
VERTEX
  5
230
330
22F
100
AcDbEntity
  8
0
 62
   250
420
  1842203
370
     9
100
AcDbVertex
100
AcDb2dVertex
 10
200.1970422835843
 20
165.2453197448477
 30
0.0
  0
VERTEX
  5
231
330
22F
100
AcDbEntity
  8
0
 62
   250
420
  1842203
370
     9
100
AcDbVertex
100
AcDb2dVertex
 10
200.2158180663652
 20
165.2184479823356
 30
0.0
  0
SEQEND
  5
232
330
22F
100
AcDbEntity
  8
0
370
     9
  0
ENDBLK
  5
22E
330
22B
100
AcDbEntity
  8
0
100
AcDbBlockEnd
  0
BLOCK
  5
235
330
233
100
AcDbEntity
  8
0
100
AcDbBlockBegin
  2
block 63
 70
     0
 71
     0
 10
0.0
 20
0.0
 30
0.0
  3
block 63
  1

  0
POLYLINE
  5
237
330
233
100
AcDbEntity
  8
0
 62
   250
420
  1842203
370
     9
100
AcDb2dPolyline
 66
     1
 10
0.0
 20
0.0
 30
0.0
  0
VERTEX
  5
238
330
237
100
AcDbEntity
  8
0
 62
   250
420
  1842203
370
     9
100
AcDbVertex
100
AcDb2dVertex
 10
202.6644212978364
 20
165.5481438377725
 30
0.0
  0
VERTEX
  5
239
330
237
100
AcDbEntity
  8
0
 62
   250
420
  1842203
370
     9
100
AcDbVertex
100
AcDb2dVertex
 10
202.6644212978364
 20
165.2184479823356
 30
0.0
  0
SEQEND
  5
23A
330
237
100
AcDbEntity
  8
0
370
     9
  0
ENDBLK
  5
236
330
233
100
AcDbEntity
  8
0
100
AcDbBlockEnd
  0
BLOCK
  5
23D
330
23B
100
AcDbEntity
  8
0
100
AcDbBlockBegin
  2
block 64
 70
     0
 71
     0
 10
0.0
 20
0.0
 30
0.0
  3
block 64
  1

  0
POLYLINE
  5
23F
330
23B
100
AcDbEntity
  8
0
 62
   250
420
  1842203
370
     9
100
AcDb2dPolyline
 66
     1
 10
0.0
 20
0.0
 30
0.0
  0
VERTEX
  5
240
330
23F
100
AcDbEntity
  8
0
 62
   250
420
  1842203
370
     9
100
AcDbVertex
100
AcDb2dVertex
 10
202.8080818743435
 20
165.2184479823356
 30
0.0
  0
VERTEX
  5
241
330
23F
100
AcDbEntity
  8
0
 62
   250
420
  1842203
370
     9
100
AcDbVertex
100
AcDb2dVertex
 10
202.8080818743435
 20
165.5429761911356
 30
0.0
  0
SEQEND
  5
242
330
23F
100
AcDbEntity
  8
0
370
     9
  0
ENDBLK
  5
23E
330
23B
100
AcDbEntity
  8
0
100
AcDbBlockEnd
  0
BLOCK
  5
245
330
243
100
AcDbEntity
  8
0
100
AcDbBlockBegin
  2
block 65
 70
     0
 71
     0
 10
0.0
 20
0.0
 30
0.0
  3
block 65
  1

  0
POLYLINE
  5
247
330
243
100
AcDbEntity
  8
0
 62
   250
420
  1842203
370
     9
100
AcDb2dPolyline
 66
     1
 10
0.0
 20
0.0
 30
0.0
  0
VERTEX
  5
248
330
247
100
AcDbEntity
  8
0
 62
   250
420
  1842203
370
     9
100
AcDbVertex
100
AcDb2dVertex
 10
202.8272021669002
 20
165.5426316813598
 30
0.0
  0
VERTEX
  5
249
330
247
100
AcDbEntity
  8
0
 62
   250
420
  1842203
370
     9
100
AcDbVertex
100
AcDb2dVertex
 10
202.8272021669002
 20
165.2184479823356
 30
0.0
  0
SEQEND
  5
24A
330
247
100
AcDbEntity
  8
0
370
     9
  0
ENDBLK
  5
246
330
243
100
AcDbEntity
  8
0
100
AcDbBlockEnd
  0
BLOCK
  5
24D
330
24B
100
AcDbEntity
  8
0
100
AcDbBlockBegin
  2
block 66
 70
     0
 71
     0
 10
0.0
 20
0.0
 30
0.0
  3
block 66
  1

  0
POLYLINE
  5
24F
330
24B
100
AcDbEntity
  8
0
 62
   250
420
  1842203
370
     9
100
AcDb2dPolyline
 66
     1
 10
0.0
 20
0.0
 30
0.0
  0
VERTEX
  5
250
330
24F
100
AcDbEntity
  8
0
 62
   250
420
  1842203
370
     9
100
AcDbVertex
100
AcDb2dVertex
 10
202.9231481394594
 20
165.2184479823356
 30
0.0
  0
VERTEX
  5
251
330
24F
100
AcDbEntity
  8
0
 62
   250
420
  1842203
370
     9
100
AcDbVertex
100
AcDb2dVertex
 10
202.9231481394594
 20
165.538842073826
 30
0.0
  0
SEQEND
  5
252
330
24F
100
AcDbEntity
  8
0
370
     9
  0
ENDBLK
  5
24E
330
24B
100
AcDbEntity
  8
0
100
AcDbBlockEnd
  0
BLOCK
  5
255
330
253
100
AcDbEntity
  8
0
100
AcDbBlockBegin
  2
block 67
 70
     0
 71
     0
 10
0.0
 20
0.0
 30
0.0
  3
block 67
  1

  0
POLYLINE
  5
257
330
253
100
AcDbEntity
  8
0
 62
   250
420
  1842203
370
     9
100
AcDb2dPolyline
 66
     1
 10
0.0
 20
0.0
 30
0.0
  0
VERTEX
  5
258
330
257
100
AcDbEntity
  8
0
 62
   250
420
  1842203
370
     9
100
AcDbVertex
100
AcDb2dVertex
 10
202.9420961771281
 20
165.5384975640502
 30
0.0
  0
VERTEX
  5
259
330
257
100
AcDbEntity
  8
0
 62
   250
420
  1842203
370
     9
100
AcDbVertex
100
AcDb2dVertex
 10
202.9420961771281
 20
165.2184479823356
 30
0.0
  0
SEQEND
  5
25A
330
257
100
AcDbEntity
  8
0
370
     9
  0
ENDBLK
  5
256
330
253
100
AcDbEntity
  8
0
100
AcDbBlockEnd
  0
BLOCK
  5
25D
330
25B
100
AcDbEntity
  8
0
100
AcDbBlockBegin
  2
block 68
 70
     0
 71
     0
 10
0.0
 20
0.0
 30
0.0
  3
block 68
  1

  0
POLYLINE
  5
25F
330
25B
100
AcDbEntity
  8
0
 62
   250
420
  1842203
370
     9
100
AcDb2dPolyline
 66
     1
 10
0.0
 20
0.0
 30
0.0
  0
VERTEX
  5
260
330
25F
100
AcDbEntity
  8
0
 62
   250
420
  1842203
370
     9
100
AcDbVertex
100
AcDb2dVertex
 10
203.1531084148033
 20
165.2184479823356
 30
0.0
  0
VERTEX
  5
261
330
25F
100
AcDbEntity
  8
0
 62
   250
420
  1842203
370
     9
100
AcDbVertex
100
AcDb2dVertex
 10
203.1531084148033
 20
165.5309183489827
 30
0.0
  0
SEQEND
  5
262
330
25F
100
AcDbEntity
  8
0
370
     9
  0
ENDBLK
  5
25E
330
25B
100
AcDbEntity
  8
0
100
AcDbBlockEnd
  0
BLOCK
  5
265
330
263
100
AcDbEntity
  8
0
100
AcDbBlockBegin
  2
block 69
 70
     0
 71
     0
 10
0.0
 20
0.0
 30
0.0
  3
block 69
  1

  0
POLYLINE
  5
267
330
263
100
AcDbEntity
  8
0
 62
   250
420
  1842203
370
     9
100
AcDb2dPolyline
 66
     1
 10
0.0
 20
0.0
 30
0.0
  0
VERTEX
  5
268
330
267
100
AcDbEntity
  8
0
 62
   250
420
  1842203
370
     9
100
AcDbVertex
100
AcDb2dVertex
 10
203.17222870736
 20
165.5305738392069
 30
0.0
  0
VERTEX
  5
269
330
267
100
AcDbEntity
  8
0
 62
   250
420
  1842203
370
     9
100
AcDbVertex
100
AcDb2dVertex
 10
203.17222870736
 20
165.2184479823356
 30
0.0
  0
SEQEND
  5
26A
330
267
100
AcDbEntity
  8
0
370
     9
  0
ENDBLK
  5
266
330
263
100
AcDbEntity
  8
0
100
AcDbBlockEnd
  0
BLOCK
  5
26D
330
26B
100
AcDbEntity
  8
0
100
AcDbBlockBegin
  2
block 70
 70
     0
 71
     0
 10
0.0
 20
0.0
 30
0.0
  3
block 70
  1

  0
POLYLINE
  5
26F
330
26B
100
AcDbEntity
  8
0
 62
   250
420
  1842203
370
     9
100
AcDb2dPolyline
 66
     1
 10
0.0
 20
0.0
 30
0.0
  0
VERTEX
  5
270
330
26F
100
AcDbEntity
  8
0
 62
   250
420
  1842203
370
     9
100
AcDbVertex
100
AcDb2dVertex
 10
203.2680024250313
 20
165.2184479823356
 30
0.0
  0
VERTEX
  5
271
330
26F
100
AcDbEntity
  8
0
 62
   250
420
  1842203
370
     9
100
AcDbVertex
100
AcDb2dVertex
 10
203.2680024250313
 20
165.5267842316731
 30
0.0
  0
SEQEND
  5
272
330
26F
100
AcDbEntity
  8
0
370
     9
  0
ENDBLK
  5
26E
330
26B
100
AcDbEntity
  8
0
100
AcDbBlockEnd
  0
BLOCK
  5
275
330
273
100
AcDbEntity
  8
0
100
AcDbBlockBegin
  2
block 71
 70
     0
 71
     0
 10
0.0
 20
0.0
 30
0.0
  3
block 71
  1

  0
POLYLINE
  5
277
330
273
100
AcDbEntity
  8
0
 62
   250
420
  1842203
370
     9
100
AcDb2dPolyline
 66
     1
 10
0.0
 20
0.0
 30
0.0
  0
VERTEX
  5
278
330
277
100
AcDbEntity
  8
0
 62
   250
420
  1842203
370
     9
100
AcDbVertex
100
AcDb2dVertex
 10
203.287122717588
 20
165.5267842316731
 30
0.0
  0
VERTEX
  5
279
330
277
100
AcDbEntity
  8
0
 62
   250
420
  1842203
370
     9
100
AcDbVertex
100
AcDb2dVertex
 10
203.287122717588
 20
165.2184479823356
 30
0.0
  0
SEQEND
  5
27A
330
277
100
AcDbEntity
  8
0
370
     9
  0
ENDBLK
  5
276
330
273
100
AcDbEntity
  8
0
100
AcDbBlockEnd
  0
BLOCK
  5
27D
330
27B
100
AcDbEntity
  8
0
100
AcDbBlockBegin
  2
block 72
 70
     0
 71
     0
 10
0.0
 20
0.0
 30
0.0
  3
block 72
  1

  0
POLYLINE
  5
27F
330
27B
100
AcDbEntity
  8
0
 62
   250
420
  1842203
370
     9
100
AcDb2dPolyline
 66
     1
 10
0.0
 20
0.0
 30
0.0
  0
VERTEX
  5
280
330
27F
100
AcDbEntity
  8
0
 62
   250
420
  1842203
370
     9
100
AcDbVertex
100
AcDb2dVertex
 10
203.3925427089817
 20
165.5226501143636
 30
0.0
  0
VERTEX
  5
281
330
27F
100
AcDbEntity
  8
0
 62
   250
420
  1842203
370
     9
100
AcDbVertex
100
AcDb2dVertex
 10
203.3925427089817
 20
165.2184479823356
 30
0.0
  0
SEQEND
  5
282
330
27F
100
AcDbEntity
  8
0
370
     9
  0
ENDBLK
  5
27E
330
27B
100
AcDbEntity
  8
0
100
AcDbBlockEnd
  0
BLOCK
  5
285
330
283
100
AcDbEntity
  8
0
100
AcDbBlockBegin
  2
block 73
 70
     0
 71
     0
 10
0.0
 20
0.0
 30
0.0
  3
block 73
  1

  0
POLYLINE
  5
287
330
283
100
AcDbEntity
  8
0
 62
   250
420
  1842203
370
     9
100
AcDb2dPolyline
 66
     1
 10
0.0
 20
0.0
 30
0.0
  0
VERTEX
  5
288
330
287
100
AcDbEntity
  8
0
 62
   250
420
  1842203
370
     9
100
AcDbVertex
100
AcDb2dVertex
 10
203.545677304323
 20
165.4826869803712
 30
0.0
  0
VERTEX
  5
289
330
287
100
AcDbEntity
  8
0
 62
   250
420
  1842203
370
     9
100
AcDbVertex
100
AcDb2dVertex
 10
203.545677304323
 20
165.2184479823356
 30
0.0
  0
SEQEND
  5
28A
330
287
100
AcDbEntity
  8
0
370
     9
  0
ENDBLK
  5
286
330
283
100
AcDbEntity
  8
0
100
AcDbBlockEnd
  0
BLOCK
  5
28D
330
28B
100
AcDbEntity
  8
0
100
AcDbBlockBegin
  2
block 74
 70
     0
 71
     0
 10
0.0
 20
0.0
 30
0.0
  3
block 74
  1

  0
POLYLINE
  5
28F
330
28B
100
AcDbEntity
  8
0
 62
   250
420
  1842203
370
     9
100
AcDb2dPolyline
 66
     1
 10
0.0
 20
0.0
 30
0.0
  0
VERTEX
  5
290
330
28F
100
AcDbEntity
  8
0
 62
   250
420
  1842203
370
     9
100
AcDbVertex
100
AcDb2dVertex
 10
203.5649698517676
 20
165.2184479823356
 30
0.0
  0
VERTEX
  5
291
330
28F
100
AcDbEntity
  8
0
 62
   250
420
  1842203
370
     9
100
AcDbVertex
100
AcDb2dVertex
 10
203.5649698517676
 20
165.4702846284426
 30
0.0
  0
SEQEND
  5
292
330
28F
100
AcDbEntity
  8
0
370
     9
  0
ENDBLK
  5
28E
330
28B
100
AcDbEntity
  8
0
100
AcDbBlockEnd
  0
BLOCK
  5
295
330
293
100
AcDbEntity
  8
0
100
AcDbBlockBegin
  2
block 75
 70
     0
 71
     0
 10
0.0
 20
0.0
 30
0.0
  3
block 75
  1

  0
POLYLINE
  5
297
330
293
100
AcDbEntity
  8
0
 62
   250
420
  1842203
370
     9
100
AcDb2dPolyline
 66
     1
 10
0.0
 20
0.0
 30
0.0
  0
VERTEX
  5
298
330
297
100
AcDbEntity
  8
0
 62
   250
420
  1842203
370
     9
100
AcDbVertex
100
AcDb2dVertex
 10
203.603210436881
 20
165.2184479823356
 30
0.0
  0
VERTEX
  5
299
330
297
100
AcDbEntity
  8
0
 62
   250
420
  1842203
370
     9
100
AcDbVertex
100
AcDb2dVertex
 10
203.603210436881
 20
165.4658060013572
 30
0.0
  0
SEQEND
  5
29A
330
297
100
AcDbEntity
  8
0
370
     9
  0
ENDBLK
  5
296
330
293
100
AcDbEntity
  8
0
100
AcDbBlockEnd
  0
BLOCK
  5
29D
330
29B
100
AcDbEntity
  8
0
100
AcDbBlockBegin
  2
block 76
 70
     0
 71
     0
 10
0.0
 20
0.0
 30
0.0
  3
block 76
  1

  0
POLYLINE
  5
29F
330
29B
100
AcDbEntity
  8
0
 62
   250
420
  1842203
370
     9
100
AcDb2dPolyline
 66
     1
 10
0.0
 20
0.0
 30
0.0
  0
VERTEX
  5
2A0
330
29F
100
AcDbEntity
  8
0
 62
   250
420
  1842203
370
     9
100
AcDbVertex
100
AcDb2dVertex
 10
203.6798638619957
 20
165.2184479823356
 30
0.0
  0
VERTEX
  5
2A1
330
29F
100
AcDbEntity
  8
0
 62
   250
420
  1842203
370
     9
100
AcDbVertex
100
AcDb2dVertex
 10
203.6798638619957
 20
165.4571932569623
 30
0.0
  0
SEQEND
  5
2A2
330
29F
100
AcDbEntity
  8
0
370
     9
  0
ENDBLK
  5
29E
330
29B
100
AcDbEntity
  8
0
100
AcDbBlockEnd
  0
BLOCK
  5
2A5
330
2A3
100
AcDbEntity
  8
0
100
AcDbBlockBegin
  2
block 77
 70
     0
 71
     0
 10
0.0
 20
0.0
 30
0.0
  3
block 77
  1

  0
POLYLINE
  5
2A7
330
2A3
100
AcDbEntity
  8
0
 62
   250
420
  1842203
370
     9
100
AcDb2dPolyline
 66
     1
 10
0.0
 20
0.0
 30
0.0
  0
VERTEX
  5
2A8
330
2A7
100
AcDbEntity
  8
0
 62
   250
420
  1842203
370
     9
100
AcDbVertex
100
AcDb2dVertex
 10
203.7184489568848
 20
165.2184479823356
 30
0.0
  0
VERTEX
  5
2A9
330
2A7
100
AcDbEntity
  8
0
 62
   250
420
  1842203
370
     9
100
AcDbVertex
100
AcDb2dVertex
 10
203.7184489568848
 20
165.4530591396528
 30
0.0
  0
SEQEND
  5
2AA
330
2A7
100
AcDbEntity
  8
0
370
     9
  0
ENDBLK
  5
2A6
330
2A3
100
AcDbEntity
  8
0
100
AcDbBlockEnd
  0
BLOCK
  5
2AD
330
2AB
100
AcDbEntity
  8
0
100
AcDbBlockBegin
  2
block 78
 70
     0
 71
     0
 10
0.0
 20
0.0
 30
0.0
  3
block 78
  1

  0
POLYLINE
  5
2AF
330
2AB
100
AcDbEntity
  8
0
 62
   250
420
  1842203
370
     9
100
AcDb2dPolyline
 66
     1
 10
0.0
 20
0.0
 30
0.0
  0
VERTEX
  5
2B0
330
2AF
100
AcDbEntity
  8
0
 62
   250
420
  1842203
370
     9
100
AcDbVertex
100
AcDb2dVertex
 10
203.7949301271116
 20
165.2184479823356
 30
0.0
  0
VERTEX
  5
2B1
330
2AF
100
AcDbEntity
  8
0
 62
   250
420
  1842203
370
     9
100
AcDbVertex
100
AcDb2dVertex
 10
203.7949301271116
 20
165.4441018854821
 30
0.0
  0
SEQEND
  5
2B2
330
2AF
100
AcDbEntity
  8
0
370
     9
  0
ENDBLK
  5
2AE
330
2AB
100
AcDbEntity
  8
0
100
AcDbBlockEnd
  0
BLOCK
  5
2B5
330
2B3
100
AcDbEntity
  8
0
100
AcDbBlockBegin
  2
block 79
 70
     0
 71
     0
 10
0.0
 20
0.0
 30
0.0
  3
block 79
  1

  0
POLYLINE
  5
2B7
330
2B3
100
AcDbEntity
  8
0
 62
   250
420
  1842203
370
     9
100
AcDb2dPolyline
 66
     1
 10
0.0
 20
0.0
 30
0.0
  0
VERTEX
  5
2B8
330
2B7
100
AcDbEntity
  8
0
 62
   250
420
  1842203
370
     9
100
AcDbVertex
100
AcDb2dVertex
 10
203.8333429671129
 20
165.2184479823356
 30
0.0
  0
VERTEX
  5
2B9
330
2B7
100
AcDbEntity
  8
0
 62
   250
420
  1842203
370
     9
100
AcDbVertex
100
AcDb2dVertex
 10
203.8333429671129
 20
165.4396232583967
 30
0.0
  0
SEQEND
  5
2BA
330
2B7
100
AcDbEntity
  8
0
370
     9
  0
ENDBLK
  5
2B6
330
2B3
100
AcDbEntity
  8
0
100
AcDbBlockEnd
  0
BLOCK
  5
2BD
330
2BB
100
AcDbEntity
  8
0
100
AcDbBlockBegin
  2
block 80
 70
     0
 71
     0
 10
0.0
 20
0.0
 30
0.0
  3
block 80
  1

  0
POLYLINE
  5
2BF
330
2BB
100
AcDbEntity
  8
0
 62
   250
420
  1842203
370
     9
100
AcDb2dPolyline
 66
     1
 10
0.0
 20
0.0
 30
0.0
  0
VERTEX
  5
2C0
330
2BF
100
AcDbEntity
  8
0
 62
   250
420
  1842203
370
     9
100
AcDbVertex
100
AcDb2dVertex
 10
203.9099963922275
 20
165.2184479823356
 30
0.0
  0
VERTEX
  5
2C1
330
2BF
100
AcDbEntity
  8
0
 62
   250
420
  1842203
370
     9
100
AcDbVertex
100
AcDb2dVertex
 10
203.9099963922275
 20
165.430666004226
 30
0.0
  0
SEQEND
  5
2C2
330
2BF
100
AcDbEntity
  8
0
370
     9
  0
ENDBLK
  5
2BE
330
2BB
100
AcDbEntity
  8
0
100
AcDbBlockEnd
  0
BLOCK
  5
2C5
330
2C3
100
AcDbEntity
  8
0
100
AcDbBlockBegin
  2
block 81
 70
     0
 71
     0
 10
0.0
 20
0.0
 30
0.0
  3
block 81
  1

  0
POLYLINE
  5
2C7
330
2C3
100
AcDbEntity
  8
0
 62
   250
420
  1842203
370
     9
100
AcDb2dPolyline
 66
     1
 10
0.0
 20
0.0
 30
0.0
  0
VERTEX
  5
2C8
330
2C7
100
AcDbEntity
  8
0
 62
   250
420
  1842203
370
     9
100
AcDbVertex
100
AcDb2dVertex
 10
203.9484092322288
 20
165.2184479823356
 30
0.0
  0
VERTEX
  5
2C9
330
2C7
100
AcDbEntity
  8
0
 62
   250
420
  1842203
370
     9
100
AcDbVertex
100
AcDb2dVertex
 10
203.9484092322288
 20
165.4261873771406
 30
0.0
  0
SEQEND
  5
2CA
330
2C7
100
AcDbEntity
  8
0
370
     9
  0
ENDBLK
  5
2C6
330
2C3
100
AcDbEntity
  8
0
100
AcDbBlockEnd
  0
BLOCK
  5
2CD
330
2CB
100
AcDbEntity
  8
0
100
AcDbBlockBegin
  2
block 82
 70
     0
 71
     0
 10
0.0
 20
0.0
 30
0.0
  3
block 82
  1

  0
POLYLINE
  5
2CF
330
2CB
100
AcDbEntity
  8
0
 62
   250
420
  1842203
370
     9
100
AcDb2dPolyline
 66
     1
 10
0.0
 20
0.0
 30
0.0
  0
VERTEX
  5
2D0
330
2CF
100
AcDbEntity
  8
0
 62
   250
420
  1842203
370
     9
100
AcDbVertex
100
AcDb2dVertex
 10
204.0057701098988
 20
165.4344556117598
 30
0.0
  0
VERTEX
  5
2D1
330
2CF
100
AcDbEntity
  8
0
 62
   250
420
  1842203
370
     9
100
AcDbVertex
100
AcDb2dVertex
 10
204.0057701098988
 20
165.2184479823356
 30
0.0
  0
SEQEND
  5
2D2
330
2CF
100
AcDbEntity
  8
0
370
     9
  0
ENDBLK
  5
2CE
330
2CB
100
AcDbEntity
  8
0
100
AcDbBlockEnd
  0
BLOCK
  5
2D5
330
2D3
100
AcDbEntity
  8
0
100
AcDbBlockBegin
  2
block 83
 70
     0
 71
     0
 10
0.0
 20
0.0
 30
0.0
  3
block 83
  1

  0
POLYLINE
  5
2D7
330
2D3
100
AcDbEntity
  8
0
 62
   250
420
  1842203
370
     9
100
AcDb2dPolyline
 66
     1
 10
0.0
 20
0.0
 30
0.0
  0
VERTEX
  5
2D8
330
2D7
100
AcDbEntity
  8
0
 62
   250
420
  1842203
370
     9
100
AcDbVertex
100
AcDb2dVertex
 10
199.071873355834
 20
165.2477313132783
 30
0.0
  0
VERTEX
  5
2D9
330
2D7
100
AcDbEntity
  8
0
 62
   250
420
  1842203
370
     9
100
AcDbVertex
100
AcDb2dVertex
 10
199.0737681596009
 20
165.2466977839509
 30
0.0
  0
VERTEX
  5
2DA
330
2D7
100
AcDbEntity
  8
0
 62
   250
420
  1842203
370
     9
100
AcDbVertex
100
AcDb2dVertex
 10
199.0773855122467
 20
165.2456642546235
 30
0.0
  0
VERTEX
  5
2DB
330
2D7
100
AcDbEntity
  8
0
 62
   250
420
  1842203
370
     9
100
AcDbVertex
100
AcDb2dVertex
 10
199.0813473746684
 20
165.2453197448477
 30
0.0
  0
SEQEND
  5
2DC
330
2D7
100
AcDbEntity
  8
0
370
     9
  0
HATCH
  5
2DD
330
2D3
100
AcDbEntity
  8
0
 62
   250
420
  1842203
100
AcDbHatch
 10
0.0
 20
0.0
 30
0.0
210
0.0
220
0.0
230
1.0
  2
SOLID
 70
     1
 71
     0
 91
        1
 92
        1
 93
        4
 72
     1
 10
199.071873355834
 20
165.2477313132783
 11
199.0737681596009
 21
165.2466977839509
 72
     1
 10
199.0737681596009
 20
165.2466977839509
 11
199.0773855122467
 21
165.2456642546235
 72
     1
 10
199.0773855122467
 20
165.2456642546235
 11
199.0813473746684
 21
165.2453197448477
 72
     1
 10
199.0813473746684
 20
165.2453197448477
 11
199.071873355834
 21
165.2477313132783
 97
        0
 75
     2
 76
     1
 98
        0
  0
ENDBLK
  5
2D6
330
2D3
100
AcDbEntity
  8
0
100
AcDbBlockEnd
  0
BLOCK
  5
2E0
330
2DE
100
AcDbEntity
  8
0
100
AcDbBlockBegin
  2
block 84
 70
     0
 71
     0
 10
0.0
 20
0.0
 30
0.0
  3
block 84
  1

  0
POLYLINE
  5
2E2
330
2DE
100
AcDbEntity
  8
0
 62
   250
420
  1842203
370
     9
100
AcDb2dPolyline
 66
     1
 10
0.0
 20
0.0
 30
0.0
  0
VERTEX
  5
2E3
330
2E2
100
AcDbEntity
  8
0
 62
   250
420
  1842203
370
     9
100
AcDbVertex
100
AcDb2dVertex
 10
199.0784190415741
 20
165.3972485559738
 30
0.0
  0
VERTEX
  5
2E4
330
2E2
100
AcDbEntity
  8
0
 62
   250
420
  1842203
370
     9
100
AcDbVertex
100
AcDb2dVertex
 10
199.0749739438162
 20
165.3982820853012
 30
0.0
  0
SEQEND
  5
2E5
330
2E2
100
AcDbEntity
  8
0
370
     9
  0
ENDBLK
  5
2E1
330
2DE
100
AcDbEntity
  8
0
100
AcDbBlockEnd
  0
BLOCK
  5
2E8
330
2E6
100
AcDbEntity
  8
0
100
AcDbBlockBegin
  2
block 85
 70
     0
 71
     0
 10
0.0
 20
0.0
 30
0.0
  3
block 85
  1

  0
POLYLINE
  5
2EA
330
2E6
100
AcDbEntity
  8
0
 62
   250
420
  1842203
370
     9
100
AcDb2dPolyline
 66
     1
 10
0.0
 20
0.0
 30
0.0
  0
VERTEX
  5
2EB
330
2EA
100
AcDbEntity
  8
0
 62
   250
420
  1842203
370
     9
100
AcDbVertex
100
AcDb2dVertex
 10
199.0749739438162
 20
165.3982820853012
 30
0.0
  0
VERTEX
  5
2EC
330
2EA
100
AcDbEntity
  8
0
 62
   250
420
  1842203
370
     9
100
AcDbVertex
100
AcDb2dVertex
 10
199.0717011009461
 20
165.3993156146286
 30
0.0
  0
VERTEX
  5
2ED
330
2EA
100
AcDbEntity
  8
0
 62
   250
420
  1842203
370
     9
100
AcDbVertex
100
AcDb2dVertex
 10
199.0682560031881
 20
165.4000046341802
 30
0.0
  0
VERTEX
  5
2EE
330
2EA
100
AcDbEntity
  8
0
 62
   250
420
  1842203
370
     9
100
AcDbVertex
100
AcDb2dVertex
 10
199.065155415206
 20
165.4006936537317
 30
0.0
  0
VERTEX
  5
2EF
330
2EA
100
AcDbEntity
  8
0
 62
   250
420
  1842203
370
     9
100
AcDbVertex
100
AcDb2dVertex
 10
199.0618825723359
 20
165.4017271830591
 30
0.0
  0
VERTEX
  5
2F0
330
2EA
100
AcDbEntity
  8
0
 62
   250
420
  1842203
370
     9
100
AcDbVertex
100
AcDb2dVertex
 10
199.0587819843537
 20
165.4020716928349
 30
0.0
  0
VERTEX
  5
2F1
330
2EA
100
AcDbEntity
  8
0
 62
   250
420
  1842203
370
     9
100
AcDbVertex
100
AcDb2dVertex
 10
199.0556813963716
 20
165.4027607123865
 30
0.0
  0
VERTEX
  5
2F2
330
2EA
100
AcDbEntity
  8
0
 62
   250
420
  1842203
370
     9
100
AcDbVertex
100
AcDb2dVertex
 10
199.0529253181652
 20
165.4031052221623
 30
0.0
  0
VERTEX
  5
2F3
330
2EA
100
AcDbEntity
  8
0
 62
   250
420
  1842203
370
     9
100
AcDbVertex
100
AcDb2dVertex
 10
199.0501692399588
 20
165.4037942417139
 30
0.0
  0
VERTEX
  5
2F4
330
2EA
100
AcDbEntity
  8
0
 62
   250
420
  1842203
370
     9
100
AcDbVertex
100
AcDb2dVertex
 10
199.0474131617525
 20
165.4041387514897
 30
0.0
  0
VERTEX
  5
2F5
330
2EA
100
AcDbEntity
  8
0
 62
   250
420
  1842203
370
     9
100
AcDbVertex
100
AcDb2dVertex
 10
199.044829338434
 20
165.4048277710413
 30
0.0
  0
SEQEND
  5
2F6
330
2EA
100
AcDbEntity
  8
0
370
     9
  0
HATCH
  5
2F7
330
2E6
100
AcDbEntity
  8
0
 62
   250
420
  1842203
100
AcDbHatch
 10
0.0
 20
0.0
 30
0.0
210
0.0
220
0.0
230
1.0
  2
SOLID
 70
     1
 71
     0
 91
        1
 92
        1
 93
       11
 72
     1
 10
199.0749739438162
 20
165.3982820853012
 11
199.0717011009461
 21
165.3993156146286
 72
     1
 10
199.0717011009461
 20
165.3993156146286
 11
199.0682560031881
 21
165.4000046341802
 72
     1
 10
199.0682560031881
 20
165.4000046341802
 11
199.065155415206
 21
165.4006936537317
 72
     1
 10
199.065155415206
 20
165.4006936537317
 11
199.0618825723359
 21
165.4017271830591
 72
     1
 10
199.0618825723359
 20
165.4017271830591
 11
199.0587819843537
 21
165.4020716928349
 72
     1
 10
199.0587819843537
 20
165.4020716928349
 11
199.0556813963716
 21
165.4027607123865
 72
     1
 10
199.0556813963716
 20
165.4027607123865
 11
199.0529253181652
 21
165.4031052221623
 72
     1
 10
199.0529253181652
 20
165.4031052221623
 11
199.0501692399588
 21
165.4037942417139
 72
     1
 10
199.0501692399588
 20
165.4037942417139
 11
199.0474131617525
 21
165.4041387514897
 72
     1
 10
199.0474131617525
 20
165.4041387514897
 11
199.044829338434
 21
165.4048277710413
 72
     1
 10
199.044829338434
 20
165.4048277710413
 11
199.0749739438162
 21
165.3982820853012
 97
        0
 75
     2
 76
     1
 98
        0
  0
ENDBLK
  5
2E9
330
2E6
100
AcDbEntity
  8
0
100
AcDbBlockEnd
  0
BLOCK
  5
2FA
330
2F8
100
AcDbEntity
  8
0
100
AcDbBlockBegin
  2
block 86
 70
     0
 71
     0
 10
0.0
 20
0.0
 30
0.0
  3
block 86
  1

  0
POLYLINE
  5
2FC
330
2F8
100
AcDbEntity
  8
0
 62
   250
420
  1842203
370
     9
100
AcDb2dPolyline
 66
     1
 10
0.0
 20
0.0
 30
0.0
  0
VERTEX
  5
2FD
330
2FC
100
AcDbEntity
  8
0
 62
   250
420
  1842203
370
     9
100
AcDbVertex
100
AcDb2dVertex
 10
199.044829338434
 20
165.4048277710413
 30
0.0
  0
VERTEX
  5
2FE
330
2FC
100
AcDbEntity
  8
0
 62
   250
420
  1842203
370
     9
100
AcDbVertex
100
AcDb2dVertex
 10
199.0422455151155
 20
165.4051722808171
 30
0.0
  0
SEQEND
  5
2FF
330
2FC
100
AcDbEntity
  8
0
370
     9
  0
ENDBLK
  5
2FB
330
2F8
100
AcDbEntity
  8
0
100
AcDbBlockEnd
  0
BLOCK
  5
302
330
300
100
AcDbEntity
  8
0
100
AcDbBlockBegin
  2
block 87
 70
     0
 71
     0
 10
0.0
 20
0.0
 30
0.0
  3
block 87
  1

  0
POLYLINE
  5
304
330
300
100
AcDbEntity
  8
0
 62
   250
420
  1842203
370
     9
100
AcDb2dPolyline
 66
     1
 10
0.0
 20
0.0
 30
0.0
  0
VERTEX
  5
305
330
304
100
AcDbEntity
  8
0
 62
   250
420
  1842203
370
     9
100
AcDbVertex
100
AcDb2dVertex
 10
203.545677304323
 20
165.4826869803712
 30
0.0
  0
VERTEX
  5
306
330
304
100
AcDbEntity
  8
0
 62
   250
420
  1842203
370
     9
100
AcDbVertex
100
AcDb2dVertex
 10
203.3925427089817
 20
165.5226501143636
 30
0.0
  0
SEQEND
  5
307
330
304
100
AcDbEntity
  8
0
370
     9
  0
ENDBLK
  5
303
330
300
100
AcDbEntity
  8
0
100
AcDbBlockEnd
  0
BLOCK
  5
30A
330
308
100
AcDbEntity
  8
0
100
AcDbBlockBegin
  2
block 88
 70
     0
 71
     0
 10
0.0
 20
0.0
 30
0.0
  3
block 88
  1

  0
POLYLINE
  5
30C
330
308
100
AcDbEntity
  8
0
 62
   250
420
  1842203
370
     9
100
AcDb2dPolyline
 66
     1
 10
0.0
 20
0.0
 30
0.0
  0
VERTEX
  5
30D
330
30C
100
AcDbEntity
  8
0
 62
   250
420
  1842203
370
     9
100
AcDbVertex
100
AcDb2dVertex
 10
221.1163648894793
 20
164.7585274316477
 30
0.0
  0
VERTEX
  5
30E
330
30C
100
AcDbEntity
  8
0
 62
   250
420
  1842203
370
     9
100
AcDbVertex
100
AcDb2dVertex
 10
199.0813473746684
 20
164.7585274316477
 30
0.0
  0
SEQEND
  5
30F
330
30C
100
AcDbEntity
  8
0
370
     9
  0
ENDBLK
  5
30B
330
308
100
AcDbEntity
  8
0
100
AcDbBlockEnd
  0
BLOCK
  5
312
330
310
100
AcDbEntity
  8
0
100
AcDbBlockBegin
  2
block 89
 70
     0
 71
     0
 10
0.0
 20
0.0
 30
0.0
  3
block 89
  1

  0
POLYLINE
  5
314
330
310
100
AcDbEntity
  8
0
 62
   250
420
  1842203
370
     9
100
AcDb2dPolyline
 66
     1
 10
0.0
 20
0.0
 30
0.0
  0
VERTEX
  5
315
330
314
100
AcDbEntity
  8
0
 62
   250
420
  1842203
370
     9
100
AcDbVertex
100
AcDb2dVertex
 10
199.0208859090162
 20
165.3972485559738
 30
0.0
  0
VERTEX
  5
316
330
314
100
AcDbEntity
  8
0
 62
   250
420
  1842203
370
     9
100
AcDbVertex
100
AcDb2dVertex
 10
199.0170963014824
 20
165.3972485559738
 30
0.0
  0
VERTEX
  5
317
330
314
100
AcDbEntity
  8
0
 62
   250
420
  1842203
370
     9
100
AcDbVertex
100
AcDb2dVertex
 10
199.0136512037245
 20
165.3975930657496
 30
0.0
  0
VERTEX
  5
318
330
314
100
AcDbEntity
  8
0
 62
   250
420
  1842203
370
     9
100
AcDbVertex
100
AcDb2dVertex
 10
199.0100338510786
 20
165.3979375755254
 30
0.0
  0
VERTEX
  5
319
330
314
100
AcDbEntity
  8
0
 62
   250
420
  1842203
370
     9
100
AcDbVertex
100
AcDb2dVertex
 10
199.0064164984327
 20
165.3979375755254
 30
0.0
  0
VERTEX
  5
31A
330
314
100
AcDbEntity
  8
0
 62
   250
420
  1842203
370
     9
100
AcDbVertex
100
AcDb2dVertex
 10
199.0029714006748
 20
165.3979375755254
 30
0.0
  0
VERTEX
  5
31B
330
314
100
AcDbEntity
  8
0
 62
   250
420
  1842203
370
     9
100
AcDbVertex
100
AcDb2dVertex
 10
198.999181793141
 20
165.3979375755254
 30
0.0
  0
VERTEX
  5
31C
330
314
100
AcDbEntity
  8
0
 62
   250
420
  1842203
370
     9
100
AcDbVertex
100
AcDb2dVertex
 10
198.9955644404951
 20
165.3975930657496
 30
0.0
  0
VERTEX
  5
31D
330
314
100
AcDbEntity
  8
0
 62
   250
420
  1842203
370
     9
100
AcDbVertex
100
AcDb2dVertex
 10
198.9919470878493
 20
165.3972485559738
 30
0.0
  0
VERTEX
  5
31E
330
314
100
AcDbEntity
  8
0
 62
   250
420
  1842203
370
     9
100
AcDbVertex
100
AcDb2dVertex
 10
198.9883297352034
 20
165.3972485559738
 30
0.0
  0
SEQEND
  5
31F
330
314
100
AcDbEntity
  8
0
370
     9
  0
HATCH
  5
320
330
310
100
AcDbEntity
  8
0
 62
   250
420
  1842203
100
AcDbHatch
 10
0.0
 20
0.0
 30
0.0
210
0.0
220
0.0
230
1.0
  2
SOLID
 70
     1
 71
     0
 91
        1
 92
        1
 93
       10
 72
     1
 10
199.0208859090162
 20
165.3972485559738
 11
199.0170963014824
 21
165.3972485559738
 72
     1
 10
199.0170963014824
 20
165.3972485559738
 11
199.0136512037245
 21
165.3975930657496
 72
     1
 10
199.0136512037245
 20
165.3975930657496
 11
199.0100338510786
 21
165.3979375755254
 72
     1
 10
199.0100338510786
 20
165.3979375755254
 11
199.0064164984327
 21
165.3979375755254
 72
     1
 10
199.0064164984327
 20
165.3979375755254
 11
199.0029714006748
 21
165.3979375755254
 72
     1
 10
199.0029714006748
 20
165.3979375755254
 11
198.999181793141
 21
165.3979375755254
 72
     1
 10
198.999181793141
 20
165.3979375755254
 11
198.9955644404951
 21
165.3975930657496
 72
     1
 10
198.9955644404951
 20
165.3975930657496
 11
198.9919470878493
 21
165.3972485559738
 72
     1
 10
198.9919470878493
 20
165.3972485559738
 11
198.9883297352034
 21
165.3972485559738
 72
     1
 10
198.9883297352034
 20
165.3972485559738
 11
199.0208859090162
 21
165.3972485559738
 97
        0
 75
     2
 76
     1
 98
        0
  0
ENDBLK
  5
313
330
310
100
AcDbEntity
  8
0
100
AcDbBlockEnd
  0
BLOCK
  5
323
330
321
100
AcDbEntity
  8
0
100
AcDbBlockBegin
  2
block 90
 70
     0
 71
     0
 10
0.0
 20
0.0
 30
0.0
  3
block 90
  1

  0
POLYLINE
  5
325
330
321
100
AcDbEntity
  8
0
 62
   250
420
  1842203
370
     9
100
AcDb2dPolyline
 66
     1
 10
0.0
 20
0.0
 30
0.0
  0
VERTEX
  5
326
330
325
100
AcDbEntity
  8
0
 62
   250
420
  1842203
370
     9
100
AcDbVertex
100
AcDb2dVertex
 10
198.9859181667728
 20
165.4051722808171
 30
0.0
  0
VERTEX
  5
327
330
325
100
AcDbEntity
  8
0
 62
   250
420
  1842203
370
     9
100
AcDbVertex
100
AcDb2dVertex
 10
198.984023363006
 20
165.4051722808171
 30
0.0
  0
VERTEX
  5
328
330
325
100
AcDbEntity
  8
0
 62
   250
420
  1842203
370
     9
100
AcDbVertex
100
AcDb2dVertex
 10
198.9824730690149
 20
165.4051722808171
 30
0.0
  0
VERTEX
  5
329
330
325
100
AcDbEntity
  8
0
 62
   250
420
  1842203
370
     9
100
AcDbVertex
100
AcDb2dVertex
 10
198.980578265248
 20
165.4051722808171
 30
0.0
  0
VERTEX
  5
32A
330
325
100
AcDbEntity
  8
0
 62
   250
420
  1842203
370
     9
100
AcDbVertex
100
AcDb2dVertex
 10
198.9790279712569
 20
165.4051722808171
 30
0.0
  0
VERTEX
  5
32B
330
325
100
AcDbEntity
  8
0
 62
   250
420
  1842203
370
     9
100
AcDbVertex
100
AcDb2dVertex
 10
198.977305422378
 20
165.4051722808171
 30
0.0
  0
VERTEX
  5
32C
330
325
100
AcDbEntity
  8
0
 62
   250
420
  1842203
370
     9
100
AcDbVertex
100
AcDb2dVertex
 10
198.9757551283869
 20
165.4051722808171
 30
0.0
  0
VERTEX
  5
32D
330
325
100
AcDbEntity
  8
0
 62
   250
420
  1842203
370
     9
100
AcDbVertex
100
AcDb2dVertex
 10
198.97386032462
 20
165.4051722808171
 30
0.0
  0
VERTEX
  5
32E
330
325
100
AcDbEntity
  8
0
 62
   250
420
  1842203
370
     9
100
AcDbVertex
100
AcDb2dVertex
 10
198.9723100306289
 20
165.4051722808171
 30
0.0
  0
VERTEX
  5
32F
330
325
100
AcDbEntity
  8
0
 62
   250
420
  1842203
370
     9
100
AcDbVertex
100
AcDb2dVertex
 10
198.9705874817499
 20
165.4051722808171
 30
0.0
  0
VERTEX
  5
330
330
325
100
AcDbEntity
  8
0
 62
   250
420
  1842203
370
     9
100
AcDbVertex
100
AcDb2dVertex
 10
198.9686926779831
 20
165.4051722808171
 30
0.0
  0
SEQEND
  5
331
330
325
100
AcDbEntity
  8
0
370
     9
  0
ENDBLK
  5
324
330
321
100
AcDbEntity
  8
0
100
AcDbBlockEnd
  0
BLOCK
  5
334
330
332
100
AcDbEntity
  8
0
100
AcDbBlockBegin
  2
block 91
 70
     0
 71
     0
 10
0.0
 20
0.0
 30
0.0
  3
block 91
  1

  0
POLYLINE
  5
336
330
332
100
AcDbEntity
  8
0
 62
   250
420
  1842203
370
     9
100
AcDb2dPolyline
 66
     1
 10
0.0
 20
0.0
 30
0.0
  0
VERTEX
  5
337
330
336
100
AcDbEntity
  8
0
 62
   250
420
  1842203
370
     9
100
AcDbVertex
100
AcDb2dVertex
 10
199.0405229662366
 20
165.4051722808171
 30
0.0
  0
VERTEX
  5
338
330
336
100
AcDbEntity
  8
0
 62
   250
420
  1842203
370
     9
100
AcDbVertex
100
AcDb2dVertex
 10
199.0386281624697
 20
165.4051722808171
 30
0.0
  0
VERTEX
  5
339
330
336
100
AcDbEntity
  8
0
 62
   250
420
  1842203
370
     9
100
AcDbVertex
100
AcDb2dVertex
 10
199.0370778684786
 20
165.4051722808171
 30
0.0
  0
VERTEX
  5
33A
330
336
100
AcDbEntity
  8
0
 62
   250
420
  1842203
370
     9
100
AcDbVertex
100
AcDb2dVertex
 10
199.0353553195996
 20
165.4051722808171
 30
0.0
  0
VERTEX
  5
33B
330
336
100
AcDbEntity
  8
0
 62
   250
420
  1842203
370
     9
100
AcDbVertex
100
AcDb2dVertex
 10
199.0336327707206
 20
165.4051722808171
 30
0.0
  0
VERTEX
  5
33C
330
336
100
AcDbEntity
  8
0
 62
   250
420
  1842203
370
     9
100
AcDbVertex
100
AcDb2dVertex
 10
199.0319102218417
 20
165.4051722808171
 30
0.0
  0
VERTEX
  5
33D
330
336
100
AcDbEntity
  8
0
 62
   250
420
  1842203
370
     9
100
AcDbVertex
100
AcDb2dVertex
 10
199.0301876729627
 20
165.4051722808171
 30
0.0
  0
VERTEX
  5
33E
330
336
100
AcDbEntity
  8
0
 62
   250
420
  1842203
370
     9
100
AcDbVertex
100
AcDb2dVertex
 10
199.0286373789716
 20
165.4051722808171
 30
0.0
  0
VERTEX
  5
33F
330
336
100
AcDbEntity
  8
0
 62
   250
420
  1842203
370
     9
100
AcDbVertex
100
AcDb2dVertex
 10
199.0269148300926
 20
165.4051722808171
 30
0.0
  0
VERTEX
  5
340
330
336
100
AcDbEntity
  8
0
 62
   250
420
  1842203
370
     9
100
AcDbVertex
100
AcDb2dVertex
 10
199.0251922812136
 20
165.4051722808171
 30
0.0
  0
VERTEX
  5
341
330
336
100
AcDbEntity
  8
0
 62
   250
420
  1842203
370
     9
100
AcDbVertex
100
AcDb2dVertex
 10
199.0234697323346
 20
165.4051722808171
 30
0.0
  0
SEQEND
  5
342
330
336
100
AcDbEntity
  8
0
370
     9
  0
ENDBLK
  5
335
330
332
100
AcDbEntity
  8
0
100
AcDbBlockEnd
  0
BLOCK
  5
345
330
343
100
AcDbEntity
  8
0
100
AcDbBlockBegin
  2
block 92
 70
     0
 71
     0
 10
0.0
 20
0.0
 30
0.0
  3
block 92
  1

  0
POLYLINE
  5
347
330
343
100
AcDbEntity
  8
0
 62
   250
420
  1842203
370
     9
100
AcDb2dPolyline
 66
     1
 10
0.0
 20
0.0
 30
0.0
  0
VERTEX
  5
348
330
347
100
AcDbEntity
  8
0
 62
   250
420
  1842203
370
     9
100
AcDbVertex
100
AcDb2dVertex
 10
198.9876407156518
 20
165.4051722808171
 30
0.0
  0
VERTEX
  5
349
330
347
100
AcDbEntity
  8
0
 62
   250
420
  1842203
370
     9
100
AcDbVertex
100
AcDb2dVertex
 10
198.9859181667728
 20
165.4051722808171
 30
0.0
  0
SEQEND
  5
34A
330
347
100
AcDbEntity
  8
0
370
     9
  0
ENDBLK
  5
346
330
343
100
AcDbEntity
  8
0
100
AcDbBlockEnd
  0
BLOCK
  5
34D
330
34B
100
AcDbEntity
  8
0
100
AcDbBlockBegin
  2
block 93
 70
     0
 71
     0
 10
0.0
 20
0.0
 30
0.0
  3
block 93
  1

  0
POLYLINE
  5
34F
330
34B
100
AcDbEntity
  8
0
 62
   250
420
  1842203
370
     9
100
AcDb2dPolyline
 66
     1
 10
0.0
 20
0.0
 30
0.0
  0
VERTEX
  5
350
330
34F
100
AcDbEntity
  8
0
 62
   250
420
  1842203
370
     9
100
AcDbVertex
100
AcDb2dVertex
 10
199.0422455151155
 20
165.4051722808171
 30
0.0
  0
VERTEX
  5
351
330
34F
100
AcDbEntity
  8
0
 62
   250
420
  1842203
370
     9
100
AcDbVertex
100
AcDb2dVertex
 10
199.0405229662366
 20
165.4051722808171
 30
0.0
  0
SEQEND
  5
352
330
34F
100
AcDbEntity
  8
0
370
     9
  0
ENDBLK
  5
34E
330
34B
100
AcDbEntity
  8
0
100
AcDbBlockEnd
  0
BLOCK
  5
355
330
353
100
AcDbEntity
  8
0
100
AcDbBlockBegin
  2
block 94
 70
     0
 71
     0
 10
0.0
 20
0.0
 30
0.0
  3
block 94
  1

  0
POLYLINE
  5
357
330
353
100
AcDbEntity
  8
0
 62
   250
420
  1842203
370
     9
100
AcDb2dPolyline
 66
     1
 10
0.0
 20
0.0
 30
0.0
  0
VERTEX
  5
358
330
357
100
AcDbEntity
  8
0
 62
   250
420
  1842203
370
     9
100
AcDbVertex
100
AcDb2dVertex
 10
204.0057701098988
 20
165.4344556117598
 30
0.0
  0
VERTEX
  5
359
330
357
100
AcDbEntity
  8
0
 62
   250
420
  1842203
370
     9
100
AcDbVertex
100
AcDb2dVertex
 10
203.545677304323
 20
165.4826869803712
 30
0.0
  0
SEQEND
  5
35A
330
357
100
AcDbEntity
  8
0
370
     9
  0
ENDBLK
  5
356
330
353
100
AcDbEntity
  8
0
100
AcDbBlockEnd
  0
BLOCK
  5
35D
330
35B
100
AcDbEntity
  8
0
100
AcDbBlockBegin
  2
block 95
 70
     0
 71
     0
 10
0.0
 20
0.0
 30
0.0
  3
block 95
  1

  0
POLYLINE
  5
35F
330
35B
100
AcDbEntity
  8
0
 62
   250
420
  1842203
370
     9
100
AcDb2dPolyline
 66
     1
 10
0.0
 20
0.0
 30
0.0
  0
VERTEX
  5
360
330
35F
100
AcDbEntity
  8
0
 62
   250
420
  1842203
370
     9
100
AcDbVertex
100
AcDb2dVertex
 10
203.603210436881
 20
165.4658060013572
 30
0.0
  0
VERTEX
  5
361
330
35F
100
AcDbEntity
  8
0
 62
   250
420
  1842203
370
     9
100
AcDbVertex
100
AcDb2dVertex
 10
203.5649698517676
 20
165.4702846284426
 30
0.0
  0
SEQEND
  5
362
330
35F
100
AcDbEntity
  8
0
370
     9
  0
ENDBLK
  5
35E
330
35B
100
AcDbEntity
  8
0
100
AcDbBlockEnd
  0
BLOCK
  5
365
330
363
100
AcDbEntity
  8
0
100
AcDbBlockBegin
  2
block 96
 70
     0
 71
     0
 10
0.0
 20
0.0
 30
0.0
  3
block 96
  1

  0
POLYLINE
  5
367
330
363
100
AcDbEntity
  8
0
 62
   250
420
  1842203
370
     9
100
AcDb2dPolyline
 66
     1
 10
0.0
 20
0.0
 30
0.0
  0
VERTEX
  5
368
330
367
100
AcDbEntity
  8
0
 62
   250
420
  1842203
370
     9
100
AcDbVertex
100
AcDb2dVertex
 10
203.7184489568848
 20
165.4530591396528
 30
0.0
  0
VERTEX
  5
369
330
367
100
AcDbEntity
  8
0
 62
   250
420
  1842203
370
     9
100
AcDbVertex
100
AcDb2dVertex
 10
203.6798638619957
 20
165.4571932569623
 30
0.0
  0
SEQEND
  5
36A
330
367
100
AcDbEntity
  8
0
370
     9
  0
ENDBLK
  5
366
330
363
100
AcDbEntity
  8
0
100
AcDbBlockEnd
  0
BLOCK
  5
36D
330
36B
100
AcDbEntity
  8
0
100
AcDbBlockBegin
  2
block 97
 70
     0
 71
     0
 10
0.0
 20
0.0
 30
0.0
  3
block 97
  1

  0
POLYLINE
  5
36F
330
36B
100
AcDbEntity
  8
0
 62
   250
420
  1842203
370
     9
100
AcDb2dPolyline
 66
     1
 10
0.0
 20
0.0
 30
0.0
  0
VERTEX
  5
370
330
36F
100
AcDbEntity
  8
0
 62
   250
420
  1842203
370
     9
100
AcDbVertex
100
AcDb2dVertex
 10
203.8333429671129
 20
165.4396232583967
 30
0.0
  0
VERTEX
  5
371
330
36F
100
AcDbEntity
  8
0
 62
   250
420
  1842203
370
     9
100
AcDbVertex
100
AcDb2dVertex
 10
203.7949301271116
 20
165.4441018854821
 30
0.0
  0
SEQEND
  5
372
330
36F
100
AcDbEntity
  8
0
370
     9
  0
ENDBLK
  5
36E
330
36B
100
AcDbEntity
  8
0
100
AcDbBlockEnd
  0
BLOCK
  5
375
330
373
100
AcDbEntity
  8
0
100
AcDbBlockBegin
  2
block 98
 70
     0
 71
     0
 10
0.0
 20
0.0
 30
0.0
  3
block 98
  1

  0
POLYLINE
  5
377
330
373
100
AcDbEntity
  8
0
 62
   250
420
  1842203
370
     9
100
AcDb2dPolyline
 66
     1
 10
0.0
 20
0.0
 30
0.0
  0
VERTEX
  5
378
330
377
100
AcDbEntity
  8
0
 62
   250
420
  1842203
370
     9
100
AcDbVertex
100
AcDb2dVertex
 10
203.9484092322288
 20
165.4261873771406
 30
0.0
  0
VERTEX
  5
379
330
377
100
AcDbEntity
  8
0
 62
   250
420
  1842203
370
     9
100
AcDbVertex
100
AcDb2dVertex
 10
203.9099963922275
 20
165.430666004226
 30
0.0
  0
SEQEND
  5
37A
330
377
100
AcDbEntity
  8
0
370
     9
  0
ENDBLK
  5
376
330
373
100
AcDbEntity
  8
0
100
AcDbBlockEnd
  0
BLOCK
  5
37D
330
37B
100
AcDbEntity
  8
0
100
AcDbBlockBegin
  2
block 99
 70
     0
 71
     0
 10
0.0
 20
0.0
 30
0.0
  3
block 99
  1

  0
POLYLINE
  5
37F
330
37B
100
AcDbEntity
  8
0
 62
   250
420
  1842203
370
     9
100
AcDb2dPolyline
 66
     1
 10
0.0
 20
0.0
 30
0.0
  0
VERTEX
  5
380
330
37F
100
AcDbEntity
  8
0
 62
   250
420
  1842203
370
     9
100
AcDbVertex
100
AcDb2dVertex
 10
198.6787877016506
 20
164.8160605642057
 30
0.0
  0
VERTEX
  5
381
330
37F
100
AcDbEntity
  8
0
 62
   250
420
  1842203
370
     9
100
AcDbVertex
100
AcDb2dVertex
 10
221.5187523076092
 20
164.8160605642057
 30
0.0
  0
SEQEND
  5
382
330
37F
100
AcDbEntity
  8
0
370
     9
  0
ENDBLK
  5
37E
330
37B
100
AcDbEntity
  8
0
100
AcDbBlockEnd
  0
BLOCK
  5
385
330
383
100
AcDbEntity
  8
0
100
AcDbBlockBegin
  2
block 100
 70
     0
 71
     0
 10
0.0
 20
0.0
 30
0.0
  3
block 100
  1

  0
POLYLINE
  5
387
330
383
100
AcDbEntity
  8
0
 62
   250
420
  1842203
370
     9
100
AcDb2dPolyline
 66
     1
 10
0.0
 20
0.0
 30
0.0
  0
VERTEX
  5
388
330
387
100
AcDbEntity
  8
0
 62
   250
420
  1842203
370
     9
100
AcDbVertex
100
AcDb2dVertex
 10
198.6787877016506
 20
165.2184479823356
 30
0.0
  0
VERTEX
  5
389
330
387
100
AcDbEntity
  8
0
 62
   250
420
  1842203
370
     9
100
AcDbVertex
100
AcDb2dVertex
 10
221.5187523076092
 20
165.2184479823356
 30
0.0
  0
SEQEND
  5
38A
330
387
100
AcDbEntity
  8
0
370
     9
  0
ENDBLK
  5
386
330
383
100
AcDbEntity
  8
0
100
AcDbBlockEnd
  0
BLOCK
  5
38D
330
38B
100
AcDbEntity
  8
0
100
AcDbBlockBegin
  2
block 101
 70
     0
 71
     0
 10
0.0
 20
0.0
 30
0.0
  3
block 101
  1

  0
POLYLINE
  5
38F
330
38B
100
AcDbEntity
  8
0
 62
   250
420
  1842203
370
     9
100
AcDb2dPolyline
 66
     1
 10
0.0
 20
0.0
 30
0.0
  0
VERTEX
  5
390
330
38F
100
AcDbEntity
  8
0
 62
   250
420
  1842203
370
     9
100
AcDbVertex
100
AcDb2dVertex
 10
211.464234500998
 20
165.2453197448477
 30
0.0
  0
VERTEX
  5
391
330
38F
100
AcDbEntity
  8
0
 62
   250
420
  1842203
370
     9
100
AcDbVertex
100
AcDb2dVertex
 10
204.0057701098988
 20
165.2453197448477
 30
0.0
  0
SEQEND
  5
392
330
38F
100
AcDbEntity
  8
0
370
     9
  0
ENDBLK
  5
38E
330
38B
100
AcDbEntity
  8
0
100
AcDbBlockEnd
  0
BLOCK
  5
395
330
393
100
AcDbEntity
  8
0
100
AcDbBlockBegin
  2
block 102
 70
     0
 71
     0
 10
0.0
 20
0.0
 30
0.0
  3
block 102
  1

  0
POLYLINE
  5
397
330
393
100
AcDbEntity
  8
0
 62
   250
420
  1842203
370
     9
100
AcDb2dPolyline
 66
     1
 10
0.0
 20
0.0
 30
0.0
  0
VERTEX
  5
398
330
397
100
AcDbEntity
  8
0
 62
   250
420
  1842203
370
     9
100
AcDbVertex
100
AcDb2dVertex
 10
199.071873355834
 20
165.2453197448477
 30
0.0
  0
VERTEX
  5
399
330
397
100
AcDbEntity
  8
0
 62
   250
420
  1842203
370
     9
100
AcDbVertex
100
AcDb2dVertex
 10
201.323244740662
 20
165.2453197448477
 30
0.0
  0
SEQEND
  5
39A
330
397
100
AcDbEntity
  8
0
370
     9
  0
ENDBLK
  5
396
330
393
100
AcDbEntity
  8
0
100
AcDbBlockEnd
  0
BLOCK
  5
39D
330
39B
100
AcDbEntity
  8
0
100
AcDbBlockBegin
  2
block 103
 70
     0
 71
     0
 10
0.0
 20
0.0
 30
0.0
  3
block 103
  1

  0
POLYLINE
  5
39F
330
39B
100
AcDbEntity
  8
0
 62
   250
420
  1842203
370
     9
100
AcDb2dPolyline
 66
     1
 10
0.0
 20
0.0
 30
0.0
  0
VERTEX
  5
3A0
330
39F
100
AcDbEntity
  8
0
 62
   250
420
  1842203
370
     9
100
AcDbVertex
100
AcDb2dVertex
 10
201.7638727439053
 20
165.2604781749827
 30
0.0
  0
VERTEX
  5
3A1
330
39F
100
AcDbEntity
  8
0
 62
   250
420
  1842203
370
     9
100
AcDbVertex
100
AcDb2dVertex
 10
201.7256321587919
 20
165.2604781749827
 30
0.0
  0
SEQEND
  5
3A2
330
39F
100
AcDbEntity
  8
0
370
     9
  0
ENDBLK
  5
39E
330
39B
100
AcDbEntity
  8
0
100
AcDbBlockEnd
  0
BLOCK
  5
3A5
330
3A3
100
AcDbEntity
  8
0
100
AcDbBlockBegin
  2
block 104
 70
     0
 71
     0
 10
0.0
 20
0.0
 30
0.0
  3
block 104
  1

  0
POLYLINE
  5
3A7
330
3A3
100
AcDbEntity
  8
0
 62
   250
420
  1842203
370
     9
100
AcDb2dPolyline
 66
     1
 10
0.0
 20
0.0
 30
0.0
  0
VERTEX
  5
3A8
330
3A7
100
AcDbEntity
  8
0
 62
   250
420
  1842203
370
     9
100
AcDbVertex
100
AcDb2dVertex
 10
201.6489787336772
 20
165.2604781749827
 30
0.0
  0
VERTEX
  5
3A9
330
3A7
100
AcDbEntity
  8
0
 62
   250
420
  1842203
370
     9
100
AcDbVertex
100
AcDb2dVertex
 10
201.610565893676
 20
165.2604781749827
 30
0.0
  0
SEQEND
  5
3AA
330
3A7
100
AcDbEntity
  8
0
370
     9
  0
ENDBLK
  5
3A6
330
3A3
100
AcDbEntity
  8
0
100
AcDbBlockEnd
  0
BLOCK
  5
3AD
330
3AB
100
AcDbEntity
  8
0
100
AcDbBlockBegin
  2
block 105
 70
     0
 71
     0
 10
0.0
 20
0.0
 30
0.0
  3
block 105
  1

  0
POLYLINE
  5
3AF
330
3AB
100
AcDbEntity
  8
0
 62
   250
420
  1842203
370
     9
100
AcDb2dPolyline
 66
     1
 10
0.0
 20
0.0
 30
0.0
  0
VERTEX
  5
3B0
330
3AF
100
AcDbEntity
  8
0
 62
   250
420
  1842203
370
     9
100
AcDbVertex
100
AcDb2dVertex
 10
201.5337402136734
 20
165.2604781749827
 30
0.0
  0
VERTEX
  5
3B1
330
3AF
100
AcDbEntity
  8
0
 62
   250
420
  1842203
370
     9
100
AcDbVertex
100
AcDb2dVertex
 10
201.495671883448
 20
165.2604781749827
 30
0.0
  0
SEQEND
  5
3B2
330
3AF
100
AcDbEntity
  8
0
370
     9
  0
ENDBLK
  5
3AE
330
3AB
100
AcDbEntity
  8
0
100
AcDbBlockEnd
  0
BLOCK
  5
3B5
330
3B3
100
AcDbEntity
  8
0
100
AcDbBlockBegin
  2
block 106
 70
     0
 71
     0
 10
0.0
 20
0.0
 30
0.0
  3
block 106
  1

  0
POLYLINE
  5
3B7
330
3B3
100
AcDbEntity
  8
0
 62
   250
420
  1842203
370
     9
100
AcDb2dPolyline
 66
     1
 10
0.0
 20
0.0
 30
0.0
  0
VERTEX
  5
3B8
330
3B7
100
AcDbEntity
  8
0
 62
   250
420
  1842203
370
     9
100
AcDbVertex
100
AcDb2dVertex
 10
201.4190184583333
 20
165.2604781749827
 30
0.0
  0
VERTEX
  5
3B9
330
3B7
100
AcDbEntity
  8
0
 62
   250
420
  1842203
370
     9
100
AcDbVertex
100
AcDb2dVertex
 10
201.380605618332
 20
165.2604781749827
 30
0.0
  0
SEQEND
  5
3BA
330
3B7
100
AcDbEntity
  8
0
370
     9
  0
ENDBLK
  5
3B6
330
3B3
100
AcDbEntity
  8
0
100
AcDbBlockEnd
  0
BLOCK
  5
3BD
330
3BB
100
AcDbEntity
  8
0
100
AcDbBlockBegin
  2
block 107
 70
     0
 71
     0
 10
0.0
 20
0.0
 30
0.0
  3
block 107
  1

  0
POLYLINE
  5
3BF
330
3BB
100
AcDbEntity
  8
0
 62
   250
420
  1842203
370
     9
100
AcDb2dPolyline
 66
     1
 10
0.0
 20
0.0
 30
0.0
  0
VERTEX
  5
3C0
330
3BF
100
AcDbEntity
  8
0
 62
   250
420
  1842203
370
     9
100
AcDbVertex
100
AcDb2dVertex
 10
198.8129742593232
 20
165.2604781749827
 30
0.0
  0
VERTEX
  5
3C1
330
3BF
100
AcDbEntity
  8
0
 62
   250
420
  1842203
370
     9
100
AcDbVertex
100
AcDb2dVertex
 10
199.3113076500123
 20
165.2604781749827
 30
0.0
  0
SEQEND
  5
3C2
330
3BF
100
AcDbEntity
  8
0
370
     9
  0
ENDBLK
  5
3BE
330
3BB
100
AcDbEntity
  8
0
100
AcDbBlockEnd
  0
BLOCK
  5
3C5
330
3C3
100
AcDbEntity
  8
0
100
AcDbBlockBegin
  2
block 108
 70
     0
 71
     0
 10
0.0
 20
0.0
 30
0.0
  3
block 108
  1

  0
POLYLINE
  5
3C7
330
3C3
100
AcDbEntity
  8
0
 62
   250
420
  1842203
370
     9
100
AcDb2dPolyline
 66
     1
 10
0.0
 20
0.0
 30
0.0
  0
VERTEX
  5
3C8
330
3C7
100
AcDbEntity
  8
0
 62
   250
420
  1842203
370
     9
100
AcDbVertex
100
AcDb2dVertex
 10
211.464234500998
 20
165.3104320924731
 30
0.0
  0
VERTEX
  5
3C9
330
3C7
100
AcDbEntity
  8
0
 62
   250
420
  1842203
370
     9
100
AcDbVertex
100
AcDb2dVertex
 10
212.4030236400426
 20
165.3104320924731
 30
0.0
  0
SEQEND
  5
3CA
330
3C7
100
AcDbEntity
  8
0
370
     9
  0
ENDBLK
  5
3C6
330
3C3
100
AcDbEntity
  8
0
100
AcDbBlockEnd
  0
BLOCK
  5
3CD
330
3CB
100
AcDbEntity
  8
0
100
AcDbBlockBegin
  2
block 109
 70
     0
 71
     0
 10
0.0
 20
0.0
 30
0.0
  3
block 109
  1

  0
POLYLINE
  5
3CF
330
3CB
100
AcDbEntity
  8
0
 62
   250
420
  1842203
370
     9
100
AcDb2dPolyline
 66
     1
 10
0.0
 20
0.0
 30
0.0
  0
VERTEX
  5
3D0
330
3CF
100
AcDbEntity
  8
0
 62
   250
420
  1842203
370
     9
100
AcDbVertex
100
AcDb2dVertex
 10
216.1202841208832
 20
165.3104320924731
 30
0.0
  0
VERTEX
  5
3D1
330
3CF
100
AcDbEntity
  8
0
 62
   250
420
  1842203
370
     9
100
AcDbVertex
100
AcDb2dVertex
 10
217.0590732599278
 20
165.3104320924731
 30
0.0
  0
SEQEND
  5
3D2
330
3CF
100
AcDbEntity
  8
0
370
     9
  0
ENDBLK
  5
3CE
330
3CB
100
AcDbEntity
  8
0
100
AcDbBlockEnd
  0
BLOCK
  5
3D5
330
3D3
100
AcDbEntity
  8
0
100
AcDbBlockBegin
  2
block 110
 70
     0
 71
     0
 10
0.0
 20
0.0
 30
0.0
  3
block 110
  1

  0
POLYLINE
  5
3D7
330
3D3
100
AcDbEntity
  8
0
 62
   250
420
  1842203
370
     9
100
AcDb2dPolyline
 66
     1
 10
0.0
 20
0.0
 30
0.0
  0
VERTEX
  5
3D8
330
3D7
100
AcDbEntity
  8
0
 62
   250
420
  1842203
370
     9
100
AcDbVertex
100
AcDb2dVertex
 10
211.464234500998
 20
165.3142217000069
 30
0.0
  0
VERTEX
  5
3D9
330
3D7
100
AcDbEntity
  8
0
 62
   250
420
  1842203
370
     9
100
AcDbVertex
100
AcDb2dVertex
 10
212.383731092598
 20
165.3142217000069
 30
0.0
  0
SEQEND
  5
3DA
330
3D7
100
AcDbEntity
  8
0
370
     9
  0
ENDBLK
  5
3D6
330
3D3
100
AcDbEntity
  8
0
100
AcDbBlockEnd
  0
BLOCK
  5
3DD
330
3DB
100
AcDbEntity
  8
0
100
AcDbBlockBegin
  2
block 111
 70
     0
 71
     0
 10
0.0
 20
0.0
 30
0.0
  3
block 111
  1

  0
POLYLINE
  5
3DF
330
3DB
100
AcDbEntity
  8
0
 62
   250
420
  1842203
370
     9
100
AcDb2dPolyline
 66
     1
 10
0.0
 20
0.0
 30
0.0
  0
VERTEX
  5
3E0
330
3DF
100
AcDbEntity
  8
0
 62
   250
420
  1842203
370
     9
100
AcDbVertex
100
AcDb2dVertex
 10
216.1395766683278
 20
165.3142217000069
 30
0.0
  0
VERTEX
  5
3E1
330
3DF
100
AcDbEntity
  8
0
 62
   250
420
  1842203
370
     9
100
AcDbVertex
100
AcDb2dVertex
 10
217.0590732599278
 20
165.3142217000069
 30
0.0
  0
SEQEND
  5
3E2
330
3DF
100
AcDbEntity
  8
0
370
     9
  0
ENDBLK
  5
3DE
330
3DB
100
AcDbEntity
  8
0
100
AcDbBlockEnd
  0
BLOCK
  5
3E5
330
3E3
100
AcDbEntity
  8
0
100
AcDbBlockBegin
  2
block 112
 70
     0
 71
     0
 10
0.0
 20
0.0
 30
0.0
  3
block 112
  1

  0
POLYLINE
  5
3E7
330
3E3
100
AcDbEntity
  8
0
 62
   250
420
  1842203
370
     9
100
AcDb2dPolyline
 66
     1
 10
0.0
 20
0.0
 30
0.0
  0
VERTEX
  5
3E8
330
3E7
100
AcDbEntity
  8
0
 62
   250
420
  1842203
370
     9
100
AcDbVertex
100
AcDb2dVertex
 10
199.2728948100111
 20
165.3180113075407
 30
0.0
  0
VERTEX
  5
3E9
330
3E7
100
AcDbEntity
  8
0
 62
   250
420
  1842203
370
     9
100
AcDbVertex
100
AcDb2dVertex
 10
198.8129742593232
 20
165.3180113075407
 30
0.0
  0
SEQEND
  5
3EA
330
3E7
100
AcDbEntity
  8
0
370
     9
  0
ENDBLK
  5
3E6
330
3E3
100
AcDbEntity
  8
0
100
AcDbBlockEnd
  0
BLOCK
  5
3ED
330
3EB
100
AcDbEntity
  8
0
100
AcDbBlockBegin
  2
block 113
 70
     0
 71
     0
 10
0.0
 20
0.0
 30
0.0
  3
block 113
  1

  0
POLYLINE
  5
3EF
330
3EB
100
AcDbEntity
  8
0
 62
   250
420
  1842203
370
     9
100
AcDb2dPolyline
 66
     1
 10
0.0
 20
0.0
 30
0.0
  0
VERTEX
  5
3F0
330
3EF
100
AcDbEntity
  8
0
 62
   250
420
  1842203
370
     9
100
AcDbVertex
100
AcDb2dVertex
 10
199.1330238410378
 20
165.327657581263
 30
0.0
  0
VERTEX
  5
3F1
330
3EF
100
AcDbEntity
  8
0
 62
   250
420
  1842203
370
     9
100
AcDbVertex
100
AcDb2dVertex
 10
198.8763640580697
 20
165.327657581263
 30
0.0
  0
SEQEND
  5
3F2
330
3EF
100
AcDbEntity
  8
0
370
     9
  0
ENDBLK
  5
3EE
330
3EB
100
AcDbEntity
  8
0
100
AcDbBlockEnd
  0
BLOCK
  5
3F5
330
3F3
100
AcDbEntity
  8
0
100
AcDbBlockBegin
  2
block 114
 70
     0
 71
     0
 10
0.0
 20
0.0
 30
0.0
  3
block 114
  1

  0
POLYLINE
  5
3F7
330
3F3
100
AcDbEntity
  8
0
 62
   250
420
  1842203
370
     9
100
AcDb2dPolyline
 66
     1
 10
0.0
 20
0.0
 30
0.0
  0
VERTEX
  5
3F8
330
3F7
100
AcDbEntity
  8
0
 62
   250
420
  1842203
370
     9
100
AcDbVertex
100
AcDb2dVertex
 10
199.1330238410378
 20
165.3696877739101
 30
0.0
  0
VERTEX
  5
3F9
330
3F7
100
AcDbEntity
  8
0
 62
   250
420
  1842203
370
     9
100
AcDbVertex
100
AcDb2dVertex
 10
198.8763640580697
 20
165.3696877739101
 30
0.0
  0
SEQEND
  5
3FA
330
3F7
100
AcDbEntity
  8
0
370
     9
  0
ENDBLK
  5
3F6
330
3F3
100
AcDbEntity
  8
0
100
AcDbBlockEnd
  0
BLOCK
  5
3FD
330
3FB
100
AcDbEntity
  8
0
100
AcDbBlockBegin
  2
block 115
 70
     0
 71
     0
 10
0.0
 20
0.0
 30
0.0
  3
block 115
  1

  0
POLYLINE
  5
3FF
330
3FB
100
AcDbEntity
  8
0
 62
   250
420
  1842203
370
     9
100
AcDb2dPolyline
 66
     1
 10
0.0
 20
0.0
 30
0.0
  0
VERTEX
  5
400
330
3FF
100
AcDbEntity
  8
0
 62
   250
420
  1842203
370
     9
100
AcDbVertex
100
AcDb2dVertex
 10
201.380605618332
 20
165.3755444400986
 30
0.0
  0
VERTEX
  5
401
330
3FF
100
AcDbEntity
  8
0
 62
   250
420
  1842203
370
     9
100
AcDbVertex
100
AcDb2dVertex
 10
201.4190184583333
 20
165.3755444400986
 30
0.0
  0
SEQEND
  5
402
330
3FF
100
AcDbEntity
  8
0
370
     9
  0
ENDBLK
  5
3FE
330
3FB
100
AcDbEntity
  8
0
100
AcDbBlockEnd
  0
BLOCK
  5
405
330
403
100
AcDbEntity
  8
0
100
AcDbBlockBegin
  2
block 116
 70
     0
 71
     0
 10
0.0
 20
0.0
 30
0.0
  3
block 116
  1

  0
POLYLINE
  5
407
330
403
100
AcDbEntity
  8
0
 62
   250
420
  1842203
370
     9
100
AcDb2dPolyline
 66
     1
 10
0.0
 20
0.0
 30
0.0
  0
VERTEX
  5
408
330
407
100
AcDbEntity
  8
0
 62
   250
420
  1842203
370
     9
100
AcDbVertex
100
AcDb2dVertex
 10
201.495671883448
 20
165.3755444400986
 30
0.0
  0
VERTEX
  5
409
330
407
100
AcDbEntity
  8
0
 62
   250
420
  1842203
370
     9
100
AcDbVertex
100
AcDb2dVertex
 10
201.5337402136734
 20
165.3755444400986
 30
0.0
  0
SEQEND
  5
40A
330
407
100
AcDbEntity
  8
0
370
     9
  0
ENDBLK
  5
406
330
403
100
AcDbEntity
  8
0
100
AcDbBlockEnd
  0
BLOCK
  5
40D
330
40B
100
AcDbEntity
  8
0
100
AcDbBlockBegin
  2
block 117
 70
     0
 71
     0
 10
0.0
 20
0.0
 30
0.0
  3
block 117
  1

  0
POLYLINE
  5
40F
330
40B
100
AcDbEntity
  8
0
 62
   250
420
  1842203
370
     9
100
AcDb2dPolyline
 66
     1
 10
0.0
 20
0.0
 30
0.0
  0
VERTEX
  5
410
330
40F
100
AcDbEntity
  8
0
 62
   250
420
  1842203
370
     9
100
AcDbVertex
100
AcDb2dVertex
 10
201.610565893676
 20
165.3755444400986
 30
0.0
  0
VERTEX
  5
411
330
40F
100
AcDbEntity
  8
0
 62
   250
420
  1842203
370
     9
100
AcDbVertex
100
AcDb2dVertex
 10
201.6489787336772
 20
165.3755444400986
 30
0.0
  0
SEQEND
  5
412
330
40F
100
AcDbEntity
  8
0
370
     9
  0
ENDBLK
  5
40E
330
40B
100
AcDbEntity
  8
0
100
AcDbBlockEnd
  0
BLOCK
  5
415
330
413
100
AcDbEntity
  8
0
100
AcDbBlockBegin
  2
block 118
 70
     0
 71
     0
 10
0.0
 20
0.0
 30
0.0
  3
block 118
  1

  0
POLYLINE
  5
417
330
413
100
AcDbEntity
  8
0
 62
   250
420
  1842203
370
     9
100
AcDb2dPolyline
 66
     1
 10
0.0
 20
0.0
 30
0.0
  0
VERTEX
  5
418
330
417
100
AcDbEntity
  8
0
 62
   250
420
  1842203
370
     9
100
AcDbVertex
100
AcDb2dVertex
 10
201.7256321587919
 20
165.3755444400986
 30
0.0
  0
VERTEX
  5
419
330
417
100
AcDbEntity
  8
0
 62
   250
420
  1842203
370
     9
100
AcDbVertex
100
AcDb2dVertex
 10
201.7638727439053
 20
165.3755444400986
 30
0.0
  0
SEQEND
  5
41A
330
417
100
AcDbEntity
  8
0
370
     9
  0
ENDBLK
  5
416
330
413
100
AcDbEntity
  8
0
100
AcDbBlockEnd
  0
BLOCK
  5
41D
330
41B
100
AcDbEntity
  8
0
100
AcDbBlockBegin
  2
block 119
 70
     0
 71
     0
 10
0.0
 20
0.0
 30
0.0
  3
block 119
  1

  0
POLYLINE
  5
41F
330
41B
100
AcDbEntity
  8
0
 62
   250
420
  1842203
370
     9
100
AcDb2dPolyline
 66
     1
 10
0.0
 20
0.0
 30
0.0
  0
VERTEX
  5
420
330
41F
100
AcDbEntity
  8
0
 62
   250
420
  1842203
370
     9
100
AcDbVertex
100
AcDb2dVertex
 10
199.1278561944009
 20
165.378300518305
 30
0.0
  0
VERTEX
  5
421
330
41F
100
AcDbEntity
  8
0
 62
   250
420
  1842203
370
     9
100
AcDbVertex
100
AcDb2dVertex
 10
198.8813594498187
 20
165.378300518305
 30
0.0
  0
SEQEND
  5
422
330
41F
100
AcDbEntity
  8
0
370
     9
  0
ENDBLK
  5
41E
330
41B
100
AcDbEntity
  8
0
100
AcDbBlockEnd
  0
BLOCK
  5
425
330
423
100
AcDbEntity
  8
0
100
AcDbBlockBegin
  2
block 120
 70
     0
 71
     0
 10
0.0
 20
0.0
 30
0.0
  3
block 120
  1

  0
POLYLINE
  5
427
330
423
100
AcDbEntity
  8
0
 62
   250
420
  1842203
370
     9
100
AcDb2dPolyline
 66
     1
 10
0.0
 20
0.0
 30
0.0
  0
VERTEX
  5
428
330
427
100
AcDbEntity
  8
0
 62
   250
420
  1842203
370
     9
100
AcDbVertex
100
AcDb2dVertex
 10
211.464234500998
 20
165.3907028702337
 30
0.0
  0
VERTEX
  5
429
330
427
100
AcDbEntity
  8
0
 62
   250
420
  1842203
370
     9
100
AcDbVertex
100
AcDb2dVertex
 10
204.0057701098988
 20
165.3907028702337
 30
0.0
  0
SEQEND
  5
42A
330
427
100
AcDbEntity
  8
0
370
     9
  0
ENDBLK
  5
426
330
423
100
AcDbEntity
  8
0
100
AcDbBlockEnd
  0
BLOCK
  5
42D
330
42B
100
AcDbEntity
  8
0
100
AcDbBlockBegin
  2
block 121
 70
     0
 71
     0
 10
0.0
 20
0.0
 30
0.0
  3
block 121
  1

  0
POLYLINE
  5
42F
330
42B
100
AcDbEntity
  8
0
 62
   250
420
  1842203
370
     9
100
AcDb2dPolyline
 66
     1
 10
0.0
 20
0.0
 30
0.0
  0
VERTEX
  5
430
330
42F
100
AcDbEntity
  8
0
 62
   250
420
  1842203
370
     9
100
AcDbVertex
100
AcDb2dVertex
 10
199.0996063927856
 20
165.3907028702337
 30
0.0
  0
VERTEX
  5
431
330
42F
100
AcDbEntity
  8
0
 62
   250
420
  1842203
370
     9
100
AcDbVertex
100
AcDb2dVertex
 10
199.2890867694735
 20
165.3907028702337
 30
0.0
  0
SEQEND
  5
432
330
42F
100
AcDbEntity
  8
0
370
     9
  0
ENDBLK
  5
42E
330
42B
100
AcDbEntity
  8
0
100
AcDbBlockEnd
  0
BLOCK
  5
435
330
433
100
AcDbEntity
  8
0
100
AcDbBlockBegin
  2
block 122
 70
     0
 71
     0
 10
0.0
 20
0.0
 30
0.0
  3
block 122
  1

  0
POLYLINE
  5
437
330
433
100
AcDbEntity
  8
0
 62
   250
420
  1842203
370
     9
100
AcDb2dPolyline
 66
     1
 10
0.0
 20
0.0
 30
0.0
  0
VERTEX
  5
438
330
437
100
AcDbEntity
  8
0
 62
   250
420
  1842203
370
     9
100
AcDbVertex
100
AcDb2dVertex
 10
199.3564384306416
 20
165.3907028702337
 30
0.0
  0
VERTEX
  5
439
330
437
100
AcDbEntity
  8
0
 62
   250
420
  1842203
370
     9
100
AcDbVertex
100
AcDb2dVertex
 10
201.323244740662
 20
165.3907028702337
 30
0.0
  0
SEQEND
  5
43A
330
437
100
AcDbEntity
  8
0
370
     9
  0
ENDBLK
  5
436
330
433
100
AcDbEntity
  8
0
100
AcDbBlockEnd
  0
BLOCK
  5
43D
330
43B
100
AcDbEntity
  8
0
100
AcDbBlockBegin
  2
block 123
 70
     0
 71
     0
 10
0.0
 20
0.0
 30
0.0
  3
block 123
  1

  0
POLYLINE
  5
43F
330
43B
100
AcDbEntity
  8
0
 62
   250
420
  1842203
370
     9
100
AcDb2dPolyline
 66
     1
 10
0.0
 20
0.0
 30
0.0
  0
VERTEX
  5
440
330
43F
100
AcDbEntity
  8
0
 62
   250
420
  1842203
370
     9
100
AcDbVertex
100
AcDb2dVertex
 10
203.3925427089817
 20
165.5226501143636
 30
0.0
  0
VERTEX
  5
441
330
43F
100
AcDbEntity
  8
0
 62
   250
420
  1842203
370
     9
100
AcDbVertex
100
AcDb2dVertex
 10
203.287122717588
 20
165.5264397218974
 30
0.0
  0
SEQEND
  5
442
330
43F
100
AcDbEntity
  8
0
370
     9
  0
ENDBLK
  5
43E
330
43B
100
AcDbEntity
  8
0
100
AcDbBlockEnd
  0
BLOCK
  5
445
330
443
100
AcDbEntity
  8
0
100
AcDbBlockBegin
  2
block 124
 70
     0
 71
     0
 10
0.0
 20
0.0
 30
0.0
  3
block 124
  1

  0
POLYLINE
  5
447
330
443
100
AcDbEntity
  8
0
 62
   250
420
  1842203
370
     9
100
AcDb2dPolyline
 66
     1
 10
0.0
 20
0.0
 30
0.0
  0
VERTEX
  5
448
330
447
100
AcDbEntity
  8
0
 62
   250
420
  1842203
370
     9
100
AcDbVertex
100
AcDb2dVertex
 10
203.2680024250313
 20
165.5267842316731
 30
0.0
  0
VERTEX
  5
449
330
447
100
AcDbEntity
  8
0
 62
   250
420
  1842203
370
     9
100
AcDbVertex
100
AcDb2dVertex
 10
203.17222870736
 20
165.5302293294311
 30
0.0
  0
SEQEND
  5
44A
330
447
100
AcDbEntity
  8
0
370
     9
  0
ENDBLK
  5
446
330
443
100
AcDbEntity
  8
0
100
AcDbBlockEnd
  0
BLOCK
  5
44D
330
44B
100
AcDbEntity
  8
0
100
AcDbBlockBegin
  2
block 125
 70
     0
 71
     0
 10
0.0
 20
0.0
 30
0.0
  3
block 125
  1

  0
POLYLINE
  5
44F
330
44B
100
AcDbEntity
  8
0
 62
   250
420
  1842203
370
     9
100
AcDb2dPolyline
 66
     1
 10
0.0
 20
0.0
 30
0.0
  0
VERTEX
  5
450
330
44F
100
AcDbEntity
  8
0
 62
   250
420
  1842203
370
     9
100
AcDbVertex
100
AcDb2dVertex
 10
203.1531084148033
 20
165.5309183489827
 30
0.0
  0
VERTEX
  5
451
330
44F
100
AcDbEntity
  8
0
 62
   250
420
  1842203
370
     9
100
AcDbVertex
100
AcDb2dVertex
 10
202.9420961771281
 20
165.5381530542744
 30
0.0
  0
SEQEND
  5
452
330
44F
100
AcDbEntity
  8
0
370
     9
  0
ENDBLK
  5
44E
330
44B
100
AcDbEntity
  8
0
100
AcDbBlockEnd
  0
BLOCK
  5
455
330
453
100
AcDbEntity
  8
0
100
AcDbBlockBegin
  2
block 126
 70
     0
 71
     0
 10
0.0
 20
0.0
 30
0.0
  3
block 126
  1

  0
POLYLINE
  5
457
330
453
100
AcDbEntity
  8
0
 62
   250
420
  1842203
370
     9
100
AcDb2dPolyline
 66
     1
 10
0.0
 20
0.0
 30
0.0
  0
VERTEX
  5
458
330
457
100
AcDbEntity
  8
0
 62
   250
420
  1842203
370
     9
100
AcDbVertex
100
AcDb2dVertex
 10
202.9231481394594
 20
165.538842073826
 30
0.0
  0
VERTEX
  5
459
330
457
100
AcDbEntity
  8
0
 62
   250
420
  1842203
370
     9
100
AcDbVertex
100
AcDb2dVertex
 10
202.8272021669002
 20
165.542287171584
 30
0.0
  0
SEQEND
  5
45A
330
457
100
AcDbEntity
  8
0
370
     9
  0
ENDBLK
  5
456
330
453
100
AcDbEntity
  8
0
100
AcDbBlockEnd
  0
BLOCK
  5
45D
330
45B
100
AcDbEntity
  8
0
100
AcDbBlockBegin
  2
block 127
 70
     0
 71
     0
 10
0.0
 20
0.0
 30
0.0
  3
block 127
  1

  0
POLYLINE
  5
45F
330
45B
100
AcDbEntity
  8
0
 62
   250
420
  1842203
370
     9
100
AcDb2dPolyline
 66
     1
 10
0.0
 20
0.0
 30
0.0
  0
VERTEX
  5
460
330
45F
100
AcDbEntity
  8
0
 62
   250
420
  1842203
370
     9
100
AcDbVertex
100
AcDb2dVertex
 10
202.8080818743435
 20
165.5429761911356
 30
0.0
  0
VERTEX
  5
461
330
45F
100
AcDbEntity
  8
0
 62
   250
420
  1842203
370
     9
100
AcDbVertex
100
AcDb2dVertex
 10
202.6644212978364
 20
165.5481438377725
 30
0.0
  0
SEQEND
  5
462
330
45F
100
AcDbEntity
  8
0
370
     9
  0
ENDBLK
  5
45E
330
45B
100
AcDbEntity
  8
0
100
AcDbBlockEnd
  0
BLOCK
  5
465
330
463
100
AcDbEntity
  8
0
100
AcDbBlockBegin
  2
block 128
 70
     0
 71
     0
 10
0.0
 20
0.0
 30
0.0
  3
block 128
  1

  0
POLYLINE
  5
467
330
463
100
AcDbEntity
  8
0
 62
   250
420
  1842203
370
     9
100
AcDb2dPolyline
 66
     1
 10
0.0
 20
0.0
 30
0.0
  0
VERTEX
  5
468
330
467
100
AcDbEntity
  8
0
 62
   250
420
  1842203
370
     9
100
AcDbVertex
100
AcDb2dVertex
 10
198.9686926779831
 20
165.4051722808171
 30
0.0
  0
VERTEX
  5
469
330
467
100
AcDbEntity
  8
0
 62
   250
420
  1842203
370
     9
100
AcDbVertex
100
AcDb2dVertex
 10
198.967142383992
 20
165.4051722808171
 30
0.0
  0
SEQEND
  5
46A
330
467
100
AcDbEntity
  8
0
370
     9
  0
ENDBLK
  5
466
330
463
100
AcDbEntity
  8
0
100
AcDbBlockEnd
  0
BLOCK
  5
46D
330
46B
100
AcDbEntity
  8
0
100
AcDbBlockBegin
  2
block 129
 70
     0
 71
     0
 10
0.0
 20
0.0
 30
0.0
  3
block 129
  1

  0
POLYLINE
  5
46F
330
46B
100
AcDbEntity
  8
0
 62
   250
420
  1842203
370
     9
100
AcDb2dPolyline
 66
     1
 10
0.0
 20
0.0
 30
0.0
  0
VERTEX
  5
470
330
46F
100
AcDbEntity
  8
0
 62
   250
420
  1842203
370
     9
100
AcDbVertex
100
AcDb2dVertex
 10
199.0234697323346
 20
165.4051722808171
 30
0.0
  0
VERTEX
  5
471
330
46F
100
AcDbEntity
  8
0
 62
   250
420
  1842203
370
     9
100
AcDbVertex
100
AcDb2dVertex
 10
199.0219194383436
 20
165.4051722808171
 30
0.0
  0
SEQEND
  5
472
330
46F
100
AcDbEntity
  8
0
370
     9
  0
ENDBLK
  5
46E
330
46B
100
AcDbEntity
  8
0
100
AcDbBlockEnd
  0
BLOCK
  5
475
330
473
100
AcDbEntity
  8
0
100
AcDbBlockBegin
  2
block 130
 70
     0
 71
     0
 10
0.0
 20
0.0
 30
0.0
  3
block 130
  1

  0
POLYLINE
  5
477
330
473
100
AcDbEntity
  8
0
 62
   250
420
  1842203
370
     9
100
AcDb2dPolyline
 66
     1
 10
0.0
 20
0.0
 30
0.0
  0
VERTEX
  5
478
330
477
100
AcDbEntity
  8
0
 62
   250
420
  1842203
370
     9
100
AcDbVertex
100
AcDb2dVertex
 10
202.6644212978364
 20
165.5481438377725
 30
0.0
  0
VERTEX
  5
479
330
477
100
AcDbEntity
  8
0
 62
   250
420
  1842203
370
     9
100
AcDbVertex
100
AcDb2dVertex
 10
202.5207607213295
 20
165.5429761911356
 30
0.0
  0
SEQEND
  5
47A
330
477
100
AcDbEntity
  8
0
370
     9
  0
ENDBLK
  5
476
330
473
100
AcDbEntity
  8
0
100
AcDbBlockEnd
  0
BLOCK
  5
47D
330
47B
100
AcDbEntity
  8
0
100
AcDbBlockBegin
  2
block 131
 70
     0
 71
     0
 10
0.0
 20
0.0
 30
0.0
  3
block 131
  1

  0
POLYLINE
  5
47F
330
47B
100
AcDbEntity
  8
0
 62
   250
420
  1842203
370
     9
100
AcDb2dPolyline
 66
     1
 10
0.0
 20
0.0
 30
0.0
  0
VERTEX
  5
480
330
47F
100
AcDbEntity
  8
0
 62
   250
420
  1842203
370
     9
100
AcDbVertex
100
AcDb2dVertex
 10
202.5014681738849
 20
165.542287171584
 30
0.0
  0
VERTEX
  5
481
330
47F
100
AcDbEntity
  8
0
 62
   250
420
  1842203
370
     9
100
AcDbVertex
100
AcDb2dVertex
 10
202.4058667111014
 20
165.538842073826
 30
0.0
  0
SEQEND
  5
482
330
47F
100
AcDbEntity
  8
0
370
     9
  0
ENDBLK
  5
47E
330
47B
100
AcDbEntity
  8
0
100
AcDbBlockEnd
  0
BLOCK
  5
485
330
483
100
AcDbEntity
  8
0
100
AcDbBlockBegin
  2
block 132
 70
     0
 71
     0
 10
0.0
 20
0.0
 30
0.0
  3
block 132
  1

  0
POLYLINE
  5
487
330
483
100
AcDbEntity
  8
0
 62
   250
420
  1842203
370
     9
100
AcDb2dPolyline
 66
     1
 10
0.0
 20
0.0
 30
0.0
  0
VERTEX
  5
488
330
487
100
AcDbEntity
  8
0
 62
   250
420
  1842203
370
     9
100
AcDbVertex
100
AcDb2dVertex
 10
202.3867464185447
 20
165.5381530542744
 30
0.0
  0
VERTEX
  5
489
330
487
100
AcDbEntity
  8
0
 62
   250
420
  1842203
370
     9
100
AcDbVertex
100
AcDb2dVertex
 10
202.1759064357575
 20
165.5309183489827
 30
0.0
  0
SEQEND
  5
48A
330
487
100
AcDbEntity
  8
0
370
     9
  0
ENDBLK
  5
486
330
483
100
AcDbEntity
  8
0
100
AcDbBlockEnd
  0
BLOCK
  5
48D
330
48B
100
AcDbEntity
  8
0
100
AcDbBlockBegin
  2
block 133
 70
     0
 71
     0
 10
0.0
 20
0.0
 30
0.0
  3
block 133
  1

  0
POLYLINE
  5
48F
330
48B
100
AcDbEntity
  8
0
 62
   250
420
  1842203
370
     9
100
AcDb2dPolyline
 66
     1
 10
0.0
 20
0.0
 30
0.0
  0
VERTEX
  5
490
330
48F
100
AcDbEntity
  8
0
 62
   250
420
  1842203
370
     9
100
AcDbVertex
100
AcDb2dVertex
 10
202.1566138883129
 20
165.5302293294311
 30
0.0
  0
VERTEX
  5
491
330
48F
100
AcDbEntity
  8
0
 62
   250
420
  1842203
370
     9
100
AcDbVertex
100
AcDb2dVertex
 10
202.0608401706416
 20
165.5267842316731
 30
0.0
  0
SEQEND
  5
492
330
48F
100
AcDbEntity
  8
0
370
     9
  0
ENDBLK
  5
48E
330
48B
100
AcDbEntity
  8
0
100
AcDbBlockEnd
  0
BLOCK
  5
495
330
493
100
AcDbEntity
  8
0
100
AcDbBlockBegin
  2
block 134
 70
     0
 71
     0
 10
0.0
 20
0.0
 30
0.0
  3
block 134
  1

  0
POLYLINE
  5
497
330
493
100
AcDbEntity
  8
0
 62
   250
420
  1842203
370
     9
100
AcDb2dPolyline
 66
     1
 10
0.0
 20
0.0
 30
0.0
  0
VERTEX
  5
498
330
497
100
AcDbEntity
  8
0
 62
   250
420
  1842203
370
     9
100
AcDbVertex
100
AcDb2dVertex
 10
202.0417198780849
 20
165.5264397218974
 30
0.0
  0
VERTEX
  5
499
330
497
100
AcDbEntity
  8
0
 62
   250
420
  1842203
370
     9
100
AcDbVertex
100
AcDb2dVertex
 10
201.9362998866912
 20
165.5226501143636
 30
0.0
  0
SEQEND
  5
49A
330
497
100
AcDbEntity
  8
0
370
     9
  0
ENDBLK
  5
496
330
493
100
AcDbEntity
  8
0
100
AcDbBlockEnd
  0
BLOCK
  5
49D
330
49B
100
AcDbEntity
  8
0
100
AcDbBlockBegin
  2
block 135
 70
     0
 71
     0
 10
0.0
 20
0.0
 30
0.0
  3
block 135
  1

  0
POLYLINE
  5
49F
330
49B
100
AcDbEntity
  8
0
 62
   250
420
  1842203
370
     9
100
AcDb2dPolyline
 66
     1
 10
0.0
 20
0.0
 30
0.0
  0
VERTEX
  5
4A0
330
49F
100
AcDbEntity
  8
0
 62
   250
420
  1842203
370
     9
100
AcDbVertex
100
AcDb2dVertex
 10
212.383731092598
 20
166.1534475138464
 30
0.0
  0
VERTEX
  5
4A1
330
49F
100
AcDbEntity
  8
0
 62
   250
420
  1842203
370
     9
100
AcDbVertex
100
AcDb2dVertex
 10
212.4030236400426
 20
166.1534475138464
 30
0.0
  0
SEQEND
  5
4A2
330
49F
100
AcDbEntity
  8
0
370
     9
  0
ENDBLK
  5
49E
330
49B
100
AcDbEntity
  8
0
100
AcDbBlockEnd
  0
BLOCK
  5
4A5
330
4A3
100
AcDbEntity
  8
0
100
AcDbBlockBegin
  2
block 136
 70
     0
 71
     0
 10
0.0
 20
0.0
 30
0.0
  3
block 136
  1

  0
POLYLINE
  5
4A7
330
4A3
100
AcDbEntity
  8
0
 62
   250
420
  1842203
370
     9
100
AcDb2dPolyline
 66
     1
 10
0.0
 20
0.0
 30
0.0
  0
VERTEX
  5
4A8
330
4A7
100
AcDbEntity
  8
0
 62
   250
420
  1842203
370
     9
100
AcDbVertex
100
AcDb2dVertex
 10
216.1202841208832
 20
166.1534475138464
 30
0.0
  0
VERTEX
  5
4A9
330
4A7
100
AcDbEntity
  8
0
 62
   250
420
  1842203
370
     9
100
AcDbVertex
100
AcDb2dVertex
 10
216.1395766683278
 20
166.1534475138464
 30
0.0
  0
SEQEND
  5
4AA
330
4A7
100
AcDbEntity
  8
0
370
     9
  0
ENDBLK
  5
4A6
330
4A3
100
AcDbEntity
  8
0
100
AcDbBlockEnd
  0
BLOCK
  5
4AD
330
4AB
100
AcDbEntity
  8
0
100
AcDbBlockBegin
  2
block 137
 70
     0
 71
     0
 10
0.0
 20
0.0
 30
0.0
  3
block 137
  1

  0
POLYLINE
  5
4AF
330
4AB
100
AcDbEntity
  8
0
 62
   250
420
  1842203
370
     9
100
AcDb2dPolyline
 66
     1
 10
0.0
 20
0.0
 30
0.0
  0
VERTEX
  5
4B0
330
4AF
100
AcDbEntity
  8
0
 62
   250
420
  1842203
370
     9
100
AcDbVertex
100
AcDb2dVertex
 10
211.464234500998
 20
166.2147702539381
 30
0.0
  0
VERTEX
  5
4B1
330
4AF
100
AcDbEntity
  8
0
 62
   250
420
  1842203
370
     9
100
AcDbVertex
100
AcDb2dVertex
 10
212.383731092598
 20
166.2147702539381
 30
0.0
  0
SEQEND
  5
4B2
330
4AF
100
AcDbEntity
  8
0
370
     9
  0
ENDBLK
  5
4AE
330
4AB
100
AcDbEntity
  8
0
100
AcDbBlockEnd
  0
BLOCK
  5
4B5
330
4B3
100
AcDbEntity
  8
0
100
AcDbBlockBegin
  2
block 138
 70
     0
 71
     0
 10
0.0
 20
0.0
 30
0.0
  3
block 138
  1

  0
POLYLINE
  5
4B7
330
4B3
100
AcDbEntity
  8
0
 62
   250
420
  1842203
370
     9
100
AcDb2dPolyline
 66
     1
 10
0.0
 20
0.0
 30
0.0
  0
VERTEX
  5
4B8
330
4B7
100
AcDbEntity
  8
0
 62
   250
420
  1842203
370
     9
100
AcDbVertex
100
AcDb2dVertex
 10
212.4030236400426
 20
166.2147702539381
 30
0.0
  0
VERTEX
  5
4B9
330
4B7
100
AcDbEntity
  8
0
 62
   250
420
  1842203
370
     9
100
AcDbVertex
100
AcDb2dVertex
 10
216.1202841208832
 20
166.2147702539381
 30
0.0
  0
SEQEND
  5
4BA
330
4B7
100
AcDbEntity
  8
0
370
     9
  0
ENDBLK
  5
4B6
330
4B3
100
AcDbEntity
  8
0
100
AcDbBlockEnd
  0
BLOCK
  5
4BD
330
4BB
100
AcDbEntity
  8
0
100
AcDbBlockBegin
  2
block 139
 70
     0
 71
     0
 10
0.0
 20
0.0
 30
0.0
  3
block 139
  1

  0
POLYLINE
  5
4BF
330
4BB
100
AcDbEntity
  8
0
 62
   250
420
  1842203
370
     9
100
AcDb2dPolyline
 66
     1
 10
0.0
 20
0.0
 30
0.0
  0
VERTEX
  5
4C0
330
4BF
100
AcDbEntity
  8
0
 62
   250
420
  1842203
370
     9
100
AcDbVertex
100
AcDb2dVertex
 10
216.1395766683278
 20
166.2147702539381
 30
0.0
  0
VERTEX
  5
4C1
330
4BF
100
AcDbEntity
  8
0
 62
   250
420
  1842203
370
     9
100
AcDbVertex
100
AcDb2dVertex
 10
217.0590732599278
 20
166.2147702539381
 30
0.0
  0
SEQEND
  5
4C2
330
4BF
100
AcDbEntity
  8
0
370
     9
  0
ENDBLK
  5
4BE
330
4BB
100
AcDbEntity
  8
0
100
AcDbBlockEnd
  0
BLOCK
  5
4C5
330
4C3
100
AcDbEntity
  8
0
100
AcDbBlockBegin
  2
block 140
 70
     0
 71
     0
 10
0.0
 20
0.0
 30
0.0
  3
block 140
  1

  0
POLYLINE
  5
4C7
330
4C3
100
AcDbEntity
  8
0
 62
   250
420
  1842203
370
     9
100
AcDb2dPolyline
 66
     1
 10
0.0
 20
0.0
 30
0.0
  0
VERTEX
  5
4C8
330
4C7
100
AcDbEntity
  8
0
 62
   250
420
  1842203
370
     9
100
AcDbVertex
100
AcDb2dVertex
 10
211.464234500998
 20
165.2184479823356
 30
0.0
  0
VERTEX
  5
4C9
330
4C7
100
AcDbEntity
  8
0
 62
   250
420
  1842203
370
     9
100
AcDbVertex
100
AcDb2dVertex
 10
211.464234500998
 20
165.3104320924731
 30
0.0
  0
SEQEND
  5
4CA
330
4C7
100
AcDbEntity
  8
0
370
     9
  0
ENDBLK
  5
4C6
330
4C3
100
AcDbEntity
  8
0
100
AcDbBlockEnd
  0
BLOCK
  5
4CD
330
4CB
100
AcDbEntity
  8
0
100
AcDbBlockBegin
  2
block 141
 70
     0
 71
     0
 10
0.0
 20
0.0
 30
0.0
  3
block 141
  1

  0
POLYLINE
  5
4CF
330
4CB
100
AcDbEntity
  8
0
 62
   250
420
  1842203
370
     9
100
AcDb2dPolyline
 66
     1
 10
0.0
 20
0.0
 30
0.0
  0
VERTEX
  5
4D0
330
4CF
100
AcDbEntity
  8
0
 62
   250
420
  1842203
370
     9
100
AcDbVertex
100
AcDb2dVertex
 10
211.464234500998
 20
165.3142217000069
 30
0.0
  0
VERTEX
  5
4D1
330
4CF
100
AcDbEntity
  8
0
 62
   250
420
  1842203
370
     9
100
AcDbVertex
100
AcDb2dVertex
 10
211.464234500998
 20
166.2147702539381
 30
0.0
  0
SEQEND
  5
4D2
330
4CF
100
AcDbEntity
  8
0
370
     9
  0
ENDBLK
  5
4CE
330
4CB
100
AcDbEntity
  8
0
100
AcDbBlockEnd
  0
BLOCK
  5
4D5
330
4D3
100
AcDbEntity
  8
0
100
AcDbBlockBegin
  2
block 142
 70
     0
 71
     0
 10
0.0
 20
0.0
 30
0.0
  3
block 142
  1

  0
POLYLINE
  5
4D7
330
4D3
100
AcDbEntity
  8
0
 62
   250
420
  1842203
370
     9
100
AcDb2dPolyline
 66
     1
 10
0.0
 20
0.0
 30
0.0
  0
VERTEX
  5
4D8
330
4D7
100
AcDbEntity
  8
0
 62
   250
420
  1842203
370
     9
100
AcDbVertex
100
AcDb2dVertex
 10
211.7133150688986
 20
165.3104320924731
 30
0.0
  0
VERTEX
  5
4D9
330
4D7
100
AcDbEntity
  8
0
 62
   250
420
  1842203
370
     9
100
AcDbVertex
100
AcDb2dVertex
 10
211.7133150688986
 20
165.3142217000069
 30
0.0
  0
SEQEND
  5
4DA
330
4D7
100
AcDbEntity
  8
0
370
     9
  0
ENDBLK
  5
4D6
330
4D3
100
AcDbEntity
  8
0
100
AcDbBlockEnd
  0
BLOCK
  5
4DD
330
4DB
100
AcDbEntity
  8
0
100
AcDbBlockBegin
  2
block 143
 70
     0
 71
     0
 10
0.0
 20
0.0
 30
0.0
  3
block 143
  1

  0
POLYLINE
  5
4DF
330
4DB
100
AcDbEntity
  8
0
 62
   250
420
  1842203
370
     9
100
AcDb2dPolyline
 66
     1
 10
0.0
 20
0.0
 30
0.0
  0
VERTEX
  5
4E0
330
4DF
100
AcDbEntity
  8
0
 62
   250
420
  1842203
370
     9
100
AcDbVertex
100
AcDb2dVertex
 10
198.967142383992
 20
165.4051722808171
 30
0.0
  0
VERTEX
  5
4E1
330
4DF
100
AcDbEntity
  8
0
 62
   250
420
  1842203
370
     9
100
AcDbVertex
100
AcDb2dVertex
 10
198.9645585606735
 20
165.4048277710413
 30
0.0
  0
SEQEND
  5
4E2
330
4DF
100
AcDbEntity
  8
0
370
     9
  0
ENDBLK
  5
4DE
330
4DB
100
AcDbEntity
  8
0
100
AcDbBlockEnd
  0
BLOCK
  5
4E5
330
4E3
100
AcDbEntity
  8
0
100
AcDbBlockBegin
  2
block 144
 70
     0
 71
     0
 10
0.0
 20
0.0
 30
0.0
  3
block 144
  1

  0
POLYLINE
  5
4E7
330
4E3
100
AcDbEntity
  8
0
 62
   250
420
  1842203
370
     9
100
AcDb2dPolyline
 66
     1
 10
0.0
 20
0.0
 30
0.0
  0
VERTEX
  5
4E8
330
4E7
100
AcDbEntity
  8
0
 62
   250
420
  1842203
370
     9
100
AcDbVertex
100
AcDb2dVertex
 10
201.782993036462
 20
165.4826869803712
 30
0.0
  0
VERTEX
  5
4E9
330
4E7
100
AcDbEntity
  8
0
 62
   250
420
  1842203
370
     9
100
AcDbVertex
100
AcDb2dVertex
 10
201.7638727439053
 20
165.4809644314923
 30
0.0
  0
SEQEND
  5
4EA
330
4E7
100
AcDbEntity
  8
0
370
     9
  0
ENDBLK
  5
4E6
330
4E3
100
AcDbEntity
  8
0
100
AcDbBlockEnd
  0
BLOCK
  5
4ED
330
4EB
100
AcDbEntity
  8
0
100
AcDbBlockBegin
  2
block 145
 70
     0
 71
     0
 10
0.0
 20
0.0
 30
0.0
  3
block 145
  1

  0
POLYLINE
  5
4EF
330
4EB
100
AcDbEntity
  8
0
 62
   250
420
  1842203
370
     9
100
AcDb2dPolyline
 66
     1
 10
0.0
 20
0.0
 30
0.0
  0
VERTEX
  5
4F0
330
4EF
100
AcDbEntity
  8
0
 62
   250
420
  1842203
370
     9
100
AcDbVertex
100
AcDb2dVertex
 10
201.7256321587919
 20
165.4764858044069
 30
0.0
  0
VERTEX
  5
4F1
330
4EF
100
AcDbEntity
  8
0
 62
   250
420
  1842203
370
     9
100
AcDbVertex
100
AcDb2dVertex
 10
201.6489787336772
 20
165.4685620795636
 30
0.0
  0
SEQEND
  5
4F2
330
4EF
100
AcDbEntity
  8
0
370
     9
  0
ENDBLK
  5
4EE
330
4EB
100
AcDbEntity
  8
0
100
AcDbBlockEnd
  0
BLOCK
  5
4F5
330
4F3
100
AcDbEntity
  8
0
100
AcDbBlockBegin
  2
block 146
 70
     0
 71
     0
 10
0.0
 20
0.0
 30
0.0
  3
block 146
  1

  0
POLYLINE
  5
4F7
330
4F3
100
AcDbEntity
  8
0
 62
   250
420
  1842203
370
     9
100
AcDb2dPolyline
 66
     1
 10
0.0
 20
0.0
 30
0.0
  0
VERTEX
  5
4F8
330
4F7
100
AcDbEntity
  8
0
 62
   250
420
  1842203
370
     9
100
AcDbVertex
100
AcDb2dVertex
 10
201.610565893676
 20
165.4647724720298
 30
0.0
  0
VERTEX
  5
4F9
330
4F7
100
AcDbEntity
  8
0
 62
   250
420
  1842203
370
     9
100
AcDbVertex
100
AcDb2dVertex
 10
201.5337402136734
 20
165.4565042374107
 30
0.0
  0
SEQEND
  5
4FA
330
4F7
100
AcDbEntity
  8
0
370
     9
  0
ENDBLK
  5
4F6
330
4F3
100
AcDbEntity
  8
0
100
AcDbBlockEnd
  0
BLOCK
  5
4FD
330
4FB
100
AcDbEntity
  8
0
100
AcDbBlockBegin
  2
block 147
 70
     0
 71
     0
 10
0.0
 20
0.0
 30
0.0
  3
block 147
  1

  0
POLYLINE
  5
4FF
330
4FB
100
AcDbEntity
  8
0
 62
   250
420
  1842203
370
     9
100
AcDb2dPolyline
 66
     1
 10
0.0
 20
0.0
 30
0.0
  0
VERTEX
  5
500
330
4FF
100
AcDbEntity
  8
0
 62
   250
420
  1842203
370
     9
100
AcDbVertex
100
AcDb2dVertex
 10
201.495671883448
 20
165.452714629877
 30
0.0
  0
VERTEX
  5
501
330
4FF
100
AcDbEntity
  8
0
 62
   250
420
  1842203
370
     9
100
AcDbVertex
100
AcDb2dVertex
 10
201.4190184583333
 20
165.4444463952579
 30
0.0
  0
SEQEND
  5
502
330
4FF
100
AcDbEntity
  8
0
370
     9
  0
ENDBLK
  5
4FE
330
4FB
100
AcDbEntity
  8
0
100
AcDbBlockEnd
  0
BLOCK
  5
505
330
503
100
AcDbEntity
  8
0
100
AcDbBlockBegin
  2
block 148
 70
     0
 71
     0
 10
0.0
 20
0.0
 30
0.0
  3
block 148
  1

  0
POLYLINE
  5
507
330
503
100
AcDbEntity
  8
0
 62
   250
420
  1842203
370
     9
100
AcDb2dPolyline
 66
     1
 10
0.0
 20
0.0
 30
0.0
  0
VERTEX
  5
508
330
507
100
AcDbEntity
  8
0
 62
   250
420
  1842203
370
     9
100
AcDbVertex
100
AcDb2dVertex
 10
201.380605618332
 20
165.4403122779483
 30
0.0
  0
VERTEX
  5
509
330
507
100
AcDbEntity
  8
0
 62
   250
420
  1842203
370
     9
100
AcDbVertex
100
AcDb2dVertex
 10
201.323244740662
 20
165.4344556117598
 30
0.0
  0
SEQEND
  5
50A
330
507
100
AcDbEntity
  8
0
370
     9
  0
ENDBLK
  5
506
330
503
100
AcDbEntity
  8
0
100
AcDbBlockEnd
  0
BLOCK
  5
50D
330
50B
100
AcDbEntity
  8
0
100
AcDbBlockBegin
  2
block 149
 70
     0
 71
     0
 10
0.0
 20
0.0
 30
0.0
  3
block 149
  1

  0
POLYLINE
  5
50F
330
50B
100
AcDbEntity
  8
0
 62
   250
420
  1842203
370
     9
100
AcDb2dPolyline
 66
     1
 10
0.0
 20
0.0
 30
0.0
  0
VERTEX
  5
510
330
50F
100
AcDbEntity
  8
0
 62
   250
420
  1842203
370
     9
100
AcDbVertex
100
AcDb2dVertex
 10
199.3686685276824
 20
165.3907028702337
 30
0.0
  0
VERTEX
  5
511
330
50F
100
AcDbEntity
  8
0
 62
   250
420
  1842203
370
     9
100
AcDbVertex
100
AcDb2dVertex
 10
199.3648789201486
 20
165.3903583604579
 30
0.0
  0
VERTEX
  5
512
330
50F
100
AcDbEntity
  8
0
 62
   250
420
  1842203
370
     9
100
AcDbVertex
100
AcDb2dVertex
 10
199.3612615675028
 20
165.3893248311305
 30
0.0
  0
VERTEX
  5
513
330
50F
100
AcDbEntity
  8
0
 62
   250
420
  1842203
370
     9
100
AcDbVertex
100
AcDb2dVertex
 10
199.3572997050811
 20
165.3872577724757
 30
0.0
  0
VERTEX
  5
514
330
50F
100
AcDbEntity
  8
0
 62
   250
420
  1842203
370
     9
100
AcDbVertex
100
AcDb2dVertex
 10
199.3540268622111
 20
165.3845016942693
 30
0.0
  0
VERTEX
  5
515
330
50F
100
AcDbEntity
  8
0
 62
   250
420
  1842203
370
     9
100
AcDbVertex
100
AcDb2dVertex
 10
199.3505817644531
 20
165.3810565965114
 30
0.0
  0
VERTEX
  5
516
330
50F
100
AcDbEntity
  8
0
 62
   250
420
  1842203
370
     9
100
AcDbVertex
100
AcDb2dVertex
 10
199.347308921583
 20
165.3769224792018
 30
0.0
  0
VERTEX
  5
517
330
50F
100
AcDbEntity
  8
0
 62
   250
420
  1842203
370
     9
100
AcDbVertex
100
AcDb2dVertex
 10
199.3443805884888
 20
165.3720993423407
 30
0.0
  0
VERTEX
  5
518
330
50F
100
AcDbEntity
  8
0
 62
   250
420
  1842203
370
     9
100
AcDbVertex
100
AcDb2dVertex
 10
199.3416245102824
 20
165.3669316957037
 30
0.0
  0
VERTEX
  5
519
330
50F
100
AcDbEntity
  8
0
 62
   250
420
  1842203
370
     9
100
AcDbVertex
100
AcDb2dVertex
 10
199.3393851967397
 20
165.3607305197394
 30
0.0
  0
VERTEX
  5
51A
330
50F
100
AcDbEntity
  8
0
 62
   250
420
  1842203
370
     9
100
AcDbVertex
100
AcDb2dVertex
 10
199.3371458831971
 20
165.3541848339993
 30
0.0
  0
VERTEX
  5
51B
330
50F
100
AcDbEntity
  8
0
 62
   250
420
  1842203
370
     9
100
AcDbVertex
100
AcDb2dVertex
 10
199.3354233343181
 20
165.3476391482591
 30
0.0
  0
VERTEX
  5
51C
330
50F
100
AcDbEntity
  8
0
 62
   250
420
  1842203
370
     9
100
AcDbVertex
100
AcDb2dVertex
 10
199.3340452952149
 20
165.3404044429674
 30
0.0
  0
VERTEX
  5
51D
330
50F
100
AcDbEntity
  8
0
 62
   250
420
  1842203
370
     9
100
AcDbVertex
100
AcDb2dVertex
 10
199.3330117658875
 20
165.3331697376757
 30
0.0
  0
VERTEX
  5
51E
330
50F
100
AcDbEntity
  8
0
 62
   250
420
  1842203
370
     9
100
AcDbVertex
100
AcDb2dVertex
 10
199.3326672561117
 20
165.3255905226082
 30
0.0
  0
VERTEX
  5
51F
330
50F
100
AcDbEntity
  8
0
 62
   250
420
  1842203
370
     9
100
AcDbVertex
100
AcDb2dVertex
 10
199.3323227463359
 20
165.3180113075407
 30
0.0
  0
SEQEND
  5
520
330
50F
100
AcDbEntity
  8
0
370
     9
  0
HATCH
  5
521
330
50B
100
AcDbEntity
  8
0
 62
   250
420
  1842203
100
AcDbHatch
 10
0.0
 20
0.0
 30
0.0
210
0.0
220
0.0
230
1.0
  2
SOLID
 70
     1
 71
     0
 91
        1
 92
        1
 93
       16
 72
     1
 10
199.3686685276824
 20
165.3907028702337
 11
199.3648789201486
 21
165.3903583604579
 72
     1
 10
199.3648789201486
 20
165.3903583604579
 11
199.3612615675028
 21
165.3893248311305
 72
     1
 10
199.3612615675028
 20
165.3893248311305
 11
199.3572997050811
 21
165.3872577724757
 72
     1
 10
199.3572997050811
 20
165.3872577724757
 11
199.3540268622111
 21
165.3845016942693
 72
     1
 10
199.3540268622111
 20
165.3845016942693
 11
199.3505817644531
 21
165.3810565965114
 72
     1
 10
199.3505817644531
 20
165.3810565965114
 11
199.347308921583
 21
165.3769224792018
 72
     1
 10
199.347308921583
 20
165.3769224792018
 11
199.3443805884888
 21
165.3720993423407
 72
     1
 10
199.3443805884888
 20
165.3720993423407
 11
199.3416245102824
 21
165.3669316957037
 72
     1
 10
199.3416245102824
 20
165.3669316957037
 11
199.3393851967397
 21
165.3607305197394
 72
     1
 10
199.3393851967397
 20
165.3607305197394
 11
199.3371458831971
 21
165.3541848339993
 72
     1
 10
199.3371458831971
 20
165.3541848339993
 11
199.3354233343181
 21
165.3476391482591
 72
     1
 10
199.3354233343181
 20
165.3476391482591
 11
199.3340452952149
 21
165.3404044429674
 72
     1
 10
199.3340452952149
 20
165.3404044429674
 11
199.3330117658875
 21
165.3331697376757
 72
     1
 10
199.3330117658875
 20
165.3331697376757
 11
199.3326672561117
 21
165.3255905226082
 72
     1
 10
199.3326672561117
 20
165.3255905226082
 11
199.3323227463359
 21
165.3180113075407
 72
     1
 10
199.3323227463359
 20
165.3180113075407
 11
199.3686685276824
 21
165.3907028702337
 97
        0
 75
     2
 76
     1
 98
        0
  0
ENDBLK
  5
50E
330
50B
100
AcDbEntity
  8
0
100
AcDbBlockEnd
  0
BLOCK
  5
524
330
522
100
AcDbEntity
  8
0
100
AcDbBlockBegin
  2
block 150
 70
     0
 71
     0
 10
0.0
 20
0.0
 30
0.0
  3
block 150
  1

  0
POLYLINE
  5
526
330
522
100
AcDbEntity
  8
0
 62
   250
420
  1842203
370
     9
100
AcDb2dPolyline
 66
     1
 10
0.0
 20
0.0
 30
0.0
  0
VERTEX
  5
527
330
526
100
AcDbEntity
  8
0
 62
   250
420
  1842203
370
     9
100
AcDbVertex
100
AcDb2dVertex
 10
211.9048625042413
 20
165.3104320924731
 30
0.0
  0
VERTEX
  5
528
330
526
100
AcDbEntity
  8
0
 62
   250
420
  1842203
370
     9
100
AcDbVertex
100
AcDb2dVertex
 10
211.9048625042413
 20
165.3142217000069
 30
0.0
  0
SEQEND
  5
529
330
526
100
AcDbEntity
  8
0
370
     9
  0
ENDBLK
  5
525
330
522
100
AcDbEntity
  8
0
100
AcDbBlockEnd
  0
BLOCK
  5
52C
330
52A
100
AcDbEntity
  8
0
100
AcDbBlockBegin
  2
block 151
 70
     0
 71
     0
 10
0.0
 20
0.0
 30
0.0
  3
block 151
  1

  0
POLYLINE
  5
52E
330
52A
100
AcDbEntity
  8
0
 62
   250
420
  1842203
370
     9
100
AcDb2dPolyline
 66
     1
 10
0.0
 20
0.0
 30
0.0
  0
VERTEX
  5
52F
330
52E
100
AcDbEntity
  8
0
 62
   250
420
  1842203
370
     9
100
AcDbVertex
100
AcDb2dVertex
 10
211.9620511270234
 20
165.3104320924731
 30
0.0
  0
VERTEX
  5
530
330
52E
100
AcDbEntity
  8
0
 62
   250
420
  1842203
370
     9
100
AcDbVertex
100
AcDb2dVertex
 10
211.9620511270234
 20
165.3142217000069
 30
0.0
  0
SEQEND
  5
531
330
52E
100
AcDbEntity
  8
0
370
     9
  0
ENDBLK
  5
52D
330
52A
100
AcDbEntity
  8
0
100
AcDbBlockEnd
  0
BLOCK
  5
534
330
532
100
AcDbEntity
  8
0
100
AcDbBlockBegin
  2
block 152
 70
     0
 71
     0
 10
0.0
 20
0.0
 30
0.0
  3
block 152
  1

  0
POLYLINE
  5
536
330
532
100
AcDbEntity
  8
0
 62
   250
420
  1842203
370
     9
100
AcDb2dPolyline
 66
     1
 10
0.0
 20
0.0
 30
0.0
  0
VERTEX
  5
537
330
536
100
AcDbEntity
  8
0
 62
   250
420
  1842203
370
     9
100
AcDbVertex
100
AcDb2dVertex
 10
212.383731092598
 20
165.3142217000069
 30
0.0
  0
VERTEX
  5
538
330
536
100
AcDbEntity
  8
0
 62
   250
420
  1842203
370
     9
100
AcDbVertex
100
AcDb2dVertex
 10
212.383731092598
 20
166.2147702539381
 30
0.0
  0
SEQEND
  5
539
330
536
100
AcDbEntity
  8
0
370
     9
  0
ENDBLK
  5
535
330
532
100
AcDbEntity
  8
0
100
AcDbBlockEnd
  0
BLOCK
  5
53C
330
53A
100
AcDbEntity
  8
0
100
AcDbBlockBegin
  2
block 153
 70
     0
 71
     0
 10
0.0
 20
0.0
 30
0.0
  3
block 153
  1

  0
POLYLINE
  5
53E
330
53A
100
AcDbEntity
  8
0
 62
   250
420
  1842203
370
     9
100
AcDb2dPolyline
 66
     1
 10
0.0
 20
0.0
 30
0.0
  0
VERTEX
  5
53F
330
53E
100
AcDbEntity
  8
0
 62
   250
420
  1842203
370
     9
100
AcDbVertex
100
AcDb2dVertex
 10
212.4030236400426
 20
166.2147702539381
 30
0.0
  0
VERTEX
  5
540
330
53E
100
AcDbEntity
  8
0
 62
   250
420
  1842203
370
     9
100
AcDbVertex
100
AcDb2dVertex
 10
212.4030236400426
 20
165.3104320924731
 30
0.0
  0
SEQEND
  5
541
330
53E
100
AcDbEntity
  8
0
370
     9
  0
ENDBLK
  5
53D
330
53A
100
AcDbEntity
  8
0
100
AcDbBlockEnd
  0
BLOCK
  5
544
330
542
100
AcDbEntity
  8
0
100
AcDbBlockBegin
  2
block 154
 70
     0
 71
     0
 10
0.0
 20
0.0
 30
0.0
  3
block 154
  1

  0
POLYLINE
  5
546
330
542
100
AcDbEntity
  8
0
 62
   250
420
  1842203
370
     9
100
AcDb2dPolyline
 66
     1
 10
0.0
 20
0.0
 30
0.0
  0
VERTEX
  5
547
330
546
100
AcDbEntity
  8
0
 62
   250
420
  1842203
370
     9
100
AcDbVertex
100
AcDb2dVertex
 10
201.9362998866912
 20
165.5226501143636
 30
0.0
  0
VERTEX
  5
548
330
546
100
AcDbEntity
  8
0
 62
   250
420
  1842203
370
     9
100
AcDbVertex
100
AcDb2dVertex
 10
201.782993036462
 20
165.4826869803712
 30
0.0
  0
SEQEND
  5
549
330
546
100
AcDbEntity
  8
0
370
     9
  0
ENDBLK
  5
545
330
542
100
AcDbEntity
  8
0
100
AcDbBlockEnd
  0
BLOCK
  5
54C
330
54A
100
AcDbEntity
  8
0
100
AcDbBlockBegin
  2
block 155
 70
     0
 71
     0
 10
0.0
 20
0.0
 30
0.0
  3
block 155
  1

  0
POLYLINE
  5
54E
330
54A
100
AcDbEntity
  8
0
 62
   250
420
  1842203
370
     9
100
AcDb2dPolyline
 66
     1
 10
0.0
 20
0.0
 30
0.0
  0
VERTEX
  5
54F
330
54E
100
AcDbEntity
  8
0
 62
   250
420
  1842203
370
     9
100
AcDbVertex
100
AcDb2dVertex
 10
198.9645585606735
 20
165.4048277710413
 30
0.0
  0
VERTEX
  5
550
330
54E
100
AcDbEntity
  8
0
 62
   250
420
  1842203
370
     9
100
AcDbVertex
100
AcDb2dVertex
 10
198.9618024824671
 20
165.4041387514897
 30
0.0
  0
VERTEX
  5
551
330
54E
100
AcDbEntity
  8
0
 62
   250
420
  1842203
370
     9
100
AcDbVertex
100
AcDb2dVertex
 10
198.9592186591487
 20
165.4037942417139
 30
0.0
  0
VERTEX
  5
552
330
54E
100
AcDbEntity
  8
0
 62
   250
420
  1842203
370
     9
100
AcDbVertex
100
AcDb2dVertex
 10
198.9562903260544
 20
165.4031052221623
 30
0.0
  0
VERTEX
  5
553
330
54E
100
AcDbEntity
  8
0
 62
   250
420
  1842203
370
     9
100
AcDbVertex
100
AcDb2dVertex
 10
198.9533619929601
 20
165.4027607123865
 30
0.0
  0
VERTEX
  5
554
330
54E
100
AcDbEntity
  8
0
 62
   250
420
  1842203
370
     9
100
AcDbVertex
100
AcDb2dVertex
 10
198.950261404978
 20
165.4020716928349
 30
0.0
  0
VERTEX
  5
555
330
54E
100
AcDbEntity
  8
0
 62
   250
420
  1842203
370
     9
100
AcDbVertex
100
AcDb2dVertex
 10
198.9475053267716
 20
165.4017271830591
 30
0.0
  0
VERTEX
  5
556
330
54E
100
AcDbEntity
  8
0
 62
   250
420
  1842203
370
     9
100
AcDbVertex
100
AcDb2dVertex
 10
198.9442324839015
 20
165.4006936537317
 30
0.0
  0
VERTEX
  5
557
330
54E
100
AcDbEntity
  8
0
 62
   250
420
  1842203
370
     9
100
AcDbVertex
100
AcDb2dVertex
 10
198.9409596410315
 20
165.4000046341802
 30
0.0
  0
VERTEX
  5
558
330
54E
100
AcDbEntity
  8
0
 62
   250
420
  1842203
370
     9
100
AcDbVertex
100
AcDb2dVertex
 10
198.9378590530493
 20
165.3993156146286
 30
0.0
  0
VERTEX
  5
559
330
54E
100
AcDbEntity
  8
0
 62
   250
420
  1842203
370
     9
100
AcDbVertex
100
AcDb2dVertex
 10
198.9344139552913
 20
165.3982820853012
 30
0.0
  0
SEQEND
  5
55A
330
54E
100
AcDbEntity
  8
0
370
     9
  0
HATCH
  5
55B
330
54A
100
AcDbEntity
  8
0
 62
   250
420
  1842203
100
AcDbHatch
 10
0.0
 20
0.0
 30
0.0
210
0.0
220
0.0
230
1.0
  2
SOLID
 70
     1
 71
     0
 91
        1
 92
        1
 93
       11
 72
     1
 10
198.9645585606735
 20
165.4048277710413
 11
198.9618024824671
 21
165.4041387514897
 72
     1
 10
198.9618024824671
 20
165.4041387514897
 11
198.9592186591487
 21
165.4037942417139
 72
     1
 10
198.9592186591487
 20
165.4037942417139
 11
198.9562903260544
 21
165.4031052221623
 72
     1
 10
198.9562903260544
 20
165.4031052221623
 11
198.9533619929601
 21
165.4027607123865
 72
     1
 10
198.9533619929601
 20
165.4027607123865
 11
198.950261404978
 21
165.4020716928349
 72
     1
 10
198.950261404978
 20
165.4020716928349
 11
198.9475053267716
 21
165.4017271830591
 72
     1
 10
198.9475053267716
 20
165.4017271830591
 11
198.9442324839015
 21
165.4006936537317
 72
     1
 10
198.9442324839015
 20
165.4006936537317
 11
198.9409596410315
 21
165.4000046341802
 72
     1
 10
198.9409596410315
 20
165.4000046341802
 11
198.9378590530493
 21
165.3993156146286
 72
     1
 10
198.9378590530493
 20
165.3993156146286
 11
198.9344139552913
 21
165.3982820853012
 72
     1
 10
198.9344139552913
 20
165.3982820853012
 11
198.9645585606735
 21
165.4048277710413
 97
        0
 75
     2
 76
     1
 98
        0
  0
ENDBLK
  5
54D
330
54A
100
AcDbEntity
  8
0
100
AcDbBlockEnd
  0
BLOCK
  5
55E
330
55C
100
AcDbEntity
  8
0
100
AcDbBlockBegin
  2
block 156
 70
     0
 71
     0
 10
0.0
 20
0.0
 30
0.0
  3
block 156
  1

  0
POLYLINE
  5
560
330
55C
100
AcDbEntity
  8
0
 62
   250
420
  1842203
370
     9
100
AcDb2dPolyline
 66
     1
 10
0.0
 20
0.0
 30
0.0
  0
VERTEX
  5
561
330
560
100
AcDbEntity
  8
0
 62
   250
420
  1842203
370
     9
100
AcDbVertex
100
AcDb2dVertex
 10
198.9344139552913
 20
165.3982820853012
 30
0.0
  0
VERTEX
  5
562
330
560
100
AcDbEntity
  8
0
 62
   250
420
  1842203
370
     9
100
AcDbVertex
100
AcDb2dVertex
 10
198.9309688575334
 20
165.3972485559738
 30
0.0
  0
SEQEND
  5
563
330
560
100
AcDbEntity
  8
0
370
     9
  0
ENDBLK
  5
55F
330
55C
100
AcDbEntity
  8
0
100
AcDbBlockEnd
  0
BLOCK
  5
566
330
564
100
AcDbEntity
  8
0
100
AcDbBlockBegin
  2
block 157
 70
     0
 71
     0
 10
0.0
 20
0.0
 30
0.0
  3
block 157
  1

  0
POLYLINE
  5
568
330
564
100
AcDbEntity
  8
0
 62
   250
420
  1842203
370
     9
100
AcDb2dPolyline
 66
     1
 10
0.0
 20
0.0
 30
0.0
  0
VERTEX
  5
569
330
568
100
AcDbEntity
  8
0
 62
   250
420
  1842203
370
     9
100
AcDbVertex
100
AcDb2dVertex
 10
216.1202841208832
 20
166.2147702539381
 30
0.0
  0
VERTEX
  5
56A
330
568
100
AcDbEntity
  8
0
 62
   250
420
  1842203
370
     9
100
AcDbVertex
100
AcDb2dVertex
 10
216.1202841208832
 20
165.3104320924731
 30
0.0
  0
SEQEND
  5
56B
330
568
100
AcDbEntity
  8
0
370
     9
  0
ENDBLK
  5
567
330
564
100
AcDbEntity
  8
0
100
AcDbBlockEnd
  0
BLOCK
  5
56E
330
56C
100
AcDbEntity
  8
0
100
AcDbBlockBegin
  2
block 158
 70
     0
 71
     0
 10
0.0
 20
0.0
 30
0.0
  3
block 158
  1

  0
POLYLINE
  5
570
330
56C
100
AcDbEntity
  8
0
 62
   250
420
  1842203
370
     9
100
AcDb2dPolyline
 66
     1
 10
0.0
 20
0.0
 30
0.0
  0
VERTEX
  5
571
330
570
100
AcDbEntity
  8
0
 62
   250
420
  1842203
370
     9
100
AcDbVertex
100
AcDb2dVertex
 10
216.1395766683278
 20
165.3142217000069
 30
0.0
  0
VERTEX
  5
572
330
570
100
AcDbEntity
  8
0
 62
   250
420
  1842203
370
     9
100
AcDbVertex
100
AcDb2dVertex
 10
216.1395766683278
 20
166.2147702539381
 30
0.0
  0
SEQEND
  5
573
330
570
100
AcDbEntity
  8
0
370
     9
  0
ENDBLK
  5
56F
330
56C
100
AcDbEntity
  8
0
100
AcDbBlockEnd
  0
BLOCK
  5
576
330
574
100
AcDbEntity
  8
0
100
AcDbBlockBegin
  2
block 159
 70
     0
 71
     0
 10
0.0
 20
0.0
 30
0.0
  3
block 159
  1

  0
POLYLINE
  5
578
330
574
100
AcDbEntity
  8
0
 62
   250
420
  1842203
370
     9
100
AcDb2dPolyline
 66
     1
 10
0.0
 20
0.0
 30
0.0
  0
VERTEX
  5
579
330
578
100
AcDbEntity
  8
0
 62
   250
420
  1842203
370
     9
100
AcDbVertex
100
AcDb2dVertex
 10
216.5612566339023
 20
165.3104320924731
 30
0.0
  0
VERTEX
  5
57A
330
578
100
AcDbEntity
  8
0
 62
   250
420
  1842203
370
     9
100
AcDbVertex
100
AcDb2dVertex
 10
216.5612566339023
 20
165.3142217000069
 30
0.0
  0
SEQEND
  5
57B
330
578
100
AcDbEntity
  8
0
370
     9
  0
ENDBLK
  5
577
330
574
100
AcDbEntity
  8
0
100
AcDbBlockEnd
  0
BLOCK
  5
57E
330
57C
100
AcDbEntity
  8
0
100
AcDbBlockBegin
  2
block 160
 70
     0
 71
     0
 10
0.0
 20
0.0
 30
0.0
  3
block 160
  1

  0
POLYLINE
  5
580
330
57C
100
AcDbEntity
  8
0
 62
   250
420
  1842203
370
     9
100
AcDb2dPolyline
 66
     1
 10
0.0
 20
0.0
 30
0.0
  0
VERTEX
  5
581
330
580
100
AcDbEntity
  8
0
 62
   250
420
  1842203
370
     9
100
AcDbVertex
100
AcDb2dVertex
 10
216.6184452566845
 20
165.3104320924731
 30
0.0
  0
VERTEX
  5
582
330
580
100
AcDbEntity
  8
0
 62
   250
420
  1842203
370
     9
100
AcDbVertex
100
AcDb2dVertex
 10
216.6184452566845
 20
165.3142217000069
 30
0.0
  0
SEQEND
  5
583
330
580
100
AcDbEntity
  8
0
370
     9
  0
ENDBLK
  5
57F
330
57C
100
AcDbEntity
  8
0
100
AcDbBlockEnd
  0
BLOCK
  5
586
330
584
100
AcDbEntity
  8
0
100
AcDbBlockBegin
  2
block 161
 70
     0
 71
     0
 10
0.0
 20
0.0
 30
0.0
  3
block 161
  1

  0
POLYLINE
  5
588
330
584
100
AcDbEntity
  8
0
 62
   250
420
  1842203
370
     9
100
AcDb2dPolyline
 66
     1
 10
0.0
 20
0.0
 30
0.0
  0
VERTEX
  5
589
330
588
100
AcDbEntity
  8
0
 62
   250
420
  1842203
370
     9
100
AcDbVertex
100
AcDb2dVertex
 10
216.7142189743558
 20
165.2184479823356
 30
0.0
  0
VERTEX
  5
58A
330
588
100
AcDbEntity
  8
0
 62
   250
420
  1842203
370
     9
100
AcDbVertex
100
AcDb2dVertex
 10
216.7142189743558
 20
165.3104320924731
 30
0.0
  0
SEQEND
  5
58B
330
588
100
AcDbEntity
  8
0
370
     9
  0
ENDBLK
  5
587
330
584
100
AcDbEntity
  8
0
100
AcDbBlockEnd
  0
BLOCK
  5
58E
330
58C
100
AcDbEntity
  8
0
100
AcDbBlockBegin
  2
block 162
 70
     0
 71
     0
 10
0.0
 20
0.0
 30
0.0
  3
block 162
  1

  0
POLYLINE
  5
590
330
58C
100
AcDbEntity
  8
0
 62
   250
420
  1842203
370
     9
100
AcDb2dPolyline
 66
     1
 10
0.0
 20
0.0
 30
0.0
  0
VERTEX
  5
591
330
590
100
AcDbEntity
  8
0
 62
   250
420
  1842203
370
     9
100
AcDbVertex
100
AcDb2dVertex
 10
216.7142189743558
 20
165.3142217000069
 30
0.0
  0
VERTEX
  5
592
330
590
100
AcDbEntity
  8
0
 62
   250
420
  1842203
370
     9
100
AcDbVertex
100
AcDb2dVertex
 10
216.7142189743558
 20
166.2147702539381
 30
0.0
  0
SEQEND
  5
593
330
590
100
AcDbEntity
  8
0
370
     9
  0
ENDBLK
  5
58F
330
58C
100
AcDbEntity
  8
0
100
AcDbBlockEnd
  0
BLOCK
  5
596
330
594
100
AcDbEntity
  8
0
100
AcDbBlockBegin
  2
block 163
 70
     0
 71
     0
 10
0.0
 20
0.0
 30
0.0
  3
block 163
  1

  0
POLYLINE
  5
598
330
594
100
AcDbEntity
  8
0
 62
   250
420
  1842203
370
     9
100
AcDb2dPolyline
 66
     1
 10
0.0
 20
0.0
 30
0.0
  0
VERTEX
  5
599
330
598
100
AcDbEntity
  8
0
 62
   250
420
  1842203
370
     9
100
AcDbVertex
100
AcDb2dVertex
 10
216.8099926920272
 20
165.3104320924731
 30
0.0
  0
VERTEX
  5
59A
330
598
100
AcDbEntity
  8
0
 62
   250
420
  1842203
370
     9
100
AcDbVertex
100
AcDb2dVertex
 10
216.8099926920272
 20
165.3142217000069
 30
0.0
  0
SEQEND
  5
59B
330
598
100
AcDbEntity
  8
0
370
     9
  0
ENDBLK
  5
597
330
594
100
AcDbEntity
  8
0
100
AcDbBlockEnd
  0
BLOCK
  5
59E
330
59C
100
AcDbEntity
  8
0
100
AcDbBlockBegin
  2
block 164
 70
     0
 71
     0
 10
0.0
 20
0.0
 30
0.0
  3
block 164
  1

  0
POLYLINE
  5
5A0
330
59C
100
AcDbEntity
  8
0
 62
   250
420
  1842203
370
     9
100
AcDb2dPolyline
 66
     1
 10
0.0
 20
0.0
 30
0.0
  0
VERTEX
  5
5A1
330
5A0
100
AcDbEntity
  8
0
 62
   250
420
  1842203
370
     9
100
AcDbVertex
100
AcDb2dVertex
 10
216.8289407296959
 20
165.3142217000069
 30
0.0
  0
VERTEX
  5
5A2
330
5A0
100
AcDbEntity
  8
0
 62
   250
420
  1842203
370
     9
100
AcDbVertex
100
AcDb2dVertex
 10
216.8289407296959
 20
166.2147702539381
 30
0.0
  0
SEQEND
  5
5A3
330
5A0
100
AcDbEntity
  8
0
370
     9
  0
ENDBLK
  5
59F
330
59C
100
AcDbEntity
  8
0
100
AcDbBlockEnd
  0
BLOCK
  5
5A6
330
5A4
100
AcDbEntity
  8
0
100
AcDbBlockBegin
  2
block 165
 70
     0
 71
     0
 10
0.0
 20
0.0
 30
0.0
  3
block 165
  1

  0
POLYLINE
  5
5A8
330
5A4
100
AcDbEntity
  8
0
 62
   250
420
  1842203
370
     9
100
AcDb2dPolyline
 66
     1
 10
0.0
 20
0.0
 30
0.0
  0
VERTEX
  5
5A9
330
5A8
100
AcDbEntity
  8
0
 62
   250
420
  1842203
370
     9
100
AcDbVertex
100
AcDb2dVertex
 10
216.8289407296959
 20
165.3104320924731
 30
0.0
  0
VERTEX
  5
5AA
330
5A8
100
AcDbEntity
  8
0
 62
   250
420
  1842203
370
     9
100
AcDbVertex
100
AcDb2dVertex
 10
216.8289407296959
 20
165.2184479823356
 30
0.0
  0
SEQEND
  5
5AB
330
5A8
100
AcDbEntity
  8
0
370
     9
  0
ENDBLK
  5
5A7
330
5A4
100
AcDbEntity
  8
0
100
AcDbBlockEnd
  0
BLOCK
  5
5AE
330
5AC
100
AcDbEntity
  8
0
100
AcDbBlockBegin
  2
block 166
 70
     0
 71
     0
 10
0.0
 20
0.0
 30
0.0
  3
block 166
  1

  0
POLYLINE
  5
5B0
330
5AC
100
AcDbEntity
  8
0
 62
   250
420
  1842203
370
     9
100
AcDb2dPolyline
 66
     1
 10
0.0
 20
0.0
 30
0.0
  0
VERTEX
  5
5B1
330
5B0
100
AcDbEntity
  8
0
 62
   250
420
  1842203
370
     9
100
AcDbVertex
100
AcDb2dVertex
 10
217.0590732599278
 20
165.2184479823356
 30
0.0
  0
VERTEX
  5
5B2
330
5B0
100
AcDbEntity
  8
0
 62
   250
420
  1842203
370
     9
100
AcDbVertex
100
AcDb2dVertex
 10
217.0590732599278
 20
165.3104320924731
 30
0.0
  0
SEQEND
  5
5B3
330
5B0
100
AcDbEntity
  8
0
370
     9
  0
ENDBLK
  5
5AF
330
5AC
100
AcDbEntity
  8
0
100
AcDbBlockEnd
  0
BLOCK
  5
5B6
330
5B4
100
AcDbEntity
  8
0
100
AcDbBlockBegin
  2
block 167
 70
     0
 71
     0
 10
0.0
 20
0.0
 30
0.0
  3
block 167
  1

  0
POLYLINE
  5
5B8
330
5B4
100
AcDbEntity
  8
0
 62
   250
420
  1842203
370
     9
100
AcDb2dPolyline
 66
     1
 10
0.0
 20
0.0
 30
0.0
  0
VERTEX
  5
5B9
330
5B8
100
AcDbEntity
  8
0
 62
   250
420
  1842203
370
     9
100
AcDbVertex
100
AcDb2dVertex
 10
217.0590732599278
 20
165.3142217000069
 30
0.0
  0
VERTEX
  5
5BA
330
5B8
100
AcDbEntity
  8
0
 62
   250
420
  1842203
370
     9
100
AcDbVertex
100
AcDb2dVertex
 10
217.0590732599278
 20
166.2147702539381
 30
0.0
  0
SEQEND
  5
5BB
330
5B8
100
AcDbEntity
  8
0
370
     9
  0
ENDBLK
  5
5B7
330
5B4
100
AcDbEntity
  8
0
100
AcDbBlockEnd
  0
BLOCK
  5
5BE
330
5BC
100
AcDbEntity
  8
0
100
AcDbBlockBegin
  2
block 168
 70
     0
 71
     0
 10
0.0
 20
0.0
 30
0.0
  3
block 168
  1

  0
POLYLINE
  5
5C0
330
5BC
100
AcDbEntity
  8
0
 62
   250
420
  1842203
370
     9
100
AcDb2dPolyline
 66
     1
 10
0.0
 20
0.0
 30
0.0
  0
VERTEX
  5
5C1
330
5C0
100
AcDbEntity
  8
0
 62
   250
420
  1842203
370
     9
100
AcDbVertex
100
AcDb2dVertex
 10
220.2647367237111
 20
165.6222134395687
 30
0.0
  0
VERTEX
  5
5C2
330
5C0
100
AcDbEntity
  8
0
 62
   250
420
  1842203
370
     9
100
AcDbVertex
100
AcDb2dVertex
 10
219.9818941977825
 20
165.2184479823356
 30
0.0
  0
SEQEND
  5
5C3
330
5C0
100
AcDbEntity
  8
0
370
     9
  0
ENDBLK
  5
5BF
330
5BC
100
AcDbEntity
  8
0
100
AcDbBlockEnd
  0
BLOCK
  5
5C6
330
5C4
100
AcDbEntity
  8
0
100
AcDbBlockBegin
  2
block 169
 70
     0
 71
     0
 10
0.0
 20
0.0
 30
0.0
  3
block 169
  1

  0
POLYLINE
  5
5C8
330
5C4
100
AcDbEntity
  8
0
 62
   250
420
  1842203
370
     9
100
AcDb2dPolyline
 66
     1
 10
0.0
 20
0.0
 30
0.0
  0
VERTEX
  5
5C9
330
5C8
100
AcDbEntity
  8
0
 62
   250
420
  1842203
370
     9
100
AcDbVertex
100
AcDb2dVertex
 10
220.9096590240015
 20
165.2184479823356
 30
0.0
  0
VERTEX
  5
5CA
330
5C8
100
AcDbEntity
  8
0
 62
   250
420
  1842203
370
     9
100
AcDbVertex
100
AcDb2dVertex
 10
220.6264719882971
 20
165.6222134395687
 30
0.0
  0
SEQEND
  5
5CB
330
5C8
100
AcDbEntity
  8
0
370
     9
  0
ENDBLK
  5
5C7
330
5C4
100
AcDbEntity
  8
0
100
AcDbBlockEnd
  0
BLOCK
  5
5CE
330
5CC
100
AcDbEntity
  8
0
100
AcDbBlockBegin
  2
block 170
 70
     0
 71
     0
 10
0.0
 20
0.0
 30
0.0
  3
block 170
  1

  0
POLYLINE
  5
5D0
330
5CC
100
AcDbEntity
  8
0
 62
   250
420
  1842203
370
     9
100
AcDb2dPolyline
 66
     1
 10
0.0
 20
0.0
 30
0.0
  0
VERTEX
  5
5D1
330
5D0
100
AcDbEntity
  8
0
 62
   250
420
  1842203
370
     9
100
AcDbVertex
100
AcDb2dVertex
 10
221.1163648894793
 20
164.7585274316477
 30
0.0
  0
VERTEX
  5
5D2
330
5D0
100
AcDbEntity
  8
0
 62
   250
420
  1842203
370
     9
100
AcDbVertex
100
AcDb2dVertex
 10
221.1163648894793
 20
164.8160605642057
 30
0.0
  0
SEQEND
  5
5D3
330
5D0
100
AcDbEntity
  8
0
370
     9
  0
ENDBLK
  5
5CF
330
5CC
100
AcDbEntity
  8
0
100
AcDbBlockEnd
  0
BLOCK
  5
5D6
330
5D4
100
AcDbEntity
  8
0
100
AcDbBlockBegin
  2
block 171
 70
     0
 71
     0
 10
0.0
 20
0.0
 30
0.0
  3
block 171
  1

  0
POLYLINE
  5
5D8
330
5D4
100
AcDbEntity
  8
0
 62
   250
420
  1842203
370
     9
100
AcDb2dPolyline
 66
     1
 10
0.0
 20
0.0
 30
0.0
  0
VERTEX
  5
5D9
330
5D8
100
AcDbEntity
  8
0
 62
   250
420
  1842203
370
     9
100
AcDbVertex
100
AcDb2dVertex
 10
221.5187523076092
 20
164.8160605642057
 30
0.0
  0
VERTEX
  5
5DA
330
5D8
100
AcDbEntity
  8
0
 62
   250
420
  1842203
370
     9
100
AcDbVertex
100
AcDb2dVertex
 10
221.5187523076092
 20
165.2184479823356
 30
0.0
  0
SEQEND
  5
5DB
330
5D8
100
AcDbEntity
  8
0
370
     9
  0
ENDBLK
  5
5D7
330
5D4
100
AcDbEntity
  8
0
100
AcDbBlockEnd
  0
BLOCK
  5
5DE
330
5DC
100
AcDbEntity
  8
0
100
AcDbBlockBegin
  2
block 172
 70
     0
 71
     0
 10
0.0
 20
0.0
 30
0.0
  3
block 172
  1

  0
SPLINE
  5
5E0
330
5DC
100
AcDbEntity
  8
0
 62
   250
420
  1842203
370
     9
100
AcDbSpline
210
0.0
220
0.0
230
1.0
 70
     8
 71
     3
 72
     8
 73
     4
 74
     0
 42
0.0000000001
 43
0.0000000001
 40
0.0
 40
0.0
 40
0.0
 40
0.0
 40
1.0
 40
1.0
 40
1.0
 40
1.0
 10
198.9309688575334
 20
165.3979375755254
 30
0.0
 10
198.9137433687436
 20
165.3931144386642
 30
0.0
 10
198.8972068995053
 20
165.3862242431483
 30
0.0
 10
198.8813594498187
 20
165.378300518305
 30
0.0
  0
HATCH
  5
5E1
330
5DC
100
AcDbEntity
  8
0
 62
   250
420
  1842203
100
AcDbHatch
 10
0.0
 20
0.0
 30
0.0
210
0.0
220
0.0
230
1.0
  2
SOLID
 70
     1
 71
     0
 91
        1
 92
        1
 93
        2
 72
     4
 94
        3
 73
     0
 74
     0
 95
        8
 96
        4
 40
0.0
 40
0.0
 40
0.0
 40
0.0
 40
0.3527780104152769
 40
0.3527780104152769
 40
0.3527780104152769
 40
0.3527780104152769
 10
198.9309688575334
 20
165.3979375755254
 10
198.9137433687436
 20
165.3931144386642
 10
198.8972068995053
 20
165.3862242431483
 10
198.8813594498187
 20
165.378300518305
 72
     1
 10
198.8813594498187
 20
165.378300518305
 11
198.9309688575334
 21
165.3979375755254
 97
        0
 75
     2
 76
     1
 98
        0
  0
ENDBLK
  5
5DF
330
5DC
100
AcDbEntity
  8
0
100
AcDbBlockEnd
  0
BLOCK
  5
5E4
330
5E2
100
AcDbEntity
  8
0
100
AcDbBlockBegin
  2
block 173
 70
     0
 71
     0
 10
0.0
 20
0.0
 30
0.0
  3
block 173
  1

  0
SPLINE
  5
5E6
330
5E2
100
AcDbEntity
  8
0
 62
   250
420
  1842203
370
     9
100
AcDbSpline
210
0.0
220
0.0
230
1.0
 70
     8
 71
     3
 72
     8
 73
     4
 74
     0
 42
0.0000000001
 43
0.0000000001
 40
0.0
 40
0.0
 40
0.0
 40
0.0
 40
1.0
 40
1.0
 40
1.0
 40
1.0
 10
199.1278561944009
 20
165.378300518305
 30
0.0
 10
199.1121809996021
 20
165.3862242431483
 30
0.0
 10
199.095472275476
 20
165.3931144386642
 30
0.0
 10
199.0784190415741
 20
165.3979375755254
 30
0.0
  0
HATCH
  5
5E7
330
5E2
100
AcDbEntity
  8
0
 62
   250
420
  1842203
100
AcDbHatch
 10
0.0
 20
0.0
 30
0.0
210
0.0
220
0.0
230
1.0
  2
SOLID
 70
     1
 71
     0
 91
        1
 92
        1
 93
        2
 72
     4
 94
        3
 73
     0
 74
     0
 95
        8
 96
        4
 40
0.0
 40
0.0
 40
0.0
 40
0.0
 40
0.3527780104152769
 40
0.3527780104152769
 40
0.3527780104152769
 40
0.3527780104152769
 10
199.1278561944009
 20
165.378300518305
 10
199.1121809996021
 20
165.3862242431483
 10
199.095472275476
 20
165.3931144386642
 10
199.0784190415741
 20
165.3979375755254
 72
     1
 10
199.0784190415741
 20
165.3979375755254
 11
199.1278561944009
 21
165.378300518305
 97
        0
 75
     2
 76
     1
 98
        0
  0
ENDBLK
  5
5E5
330
5E2
100
AcDbEntity
  8
0
100
AcDbBlockEnd
  0
BLOCK
  5
5EA
330
5E8
100
AcDbEntity
  8
0
100
AcDbBlockBegin
  2
block 174
 70
     0
 71
     0
 10
0.0
 20
0.0
 30
0.0
  3
block 174
  1

  0
SPLINE
  5
5EC
330
5E8
100
AcDbEntity
  8
0
 62
   250
420
  1842203
370
     9
100
AcDbSpline
210
0.0
220
0.0
230
1.0
 70
     8
 71
     3
 72
    11
 73
     7
 74
     0
 42
0.0000000001
 43
0.0000000001
 40
0.0
 40
0.0
 40
0.0
 40
0.0
 40
1.0
 40
1.0
 40
1.0
 40
2.0
 40
2.0
 40
2.0
 40
2.0
 10
220.6264719882971
 20
165.6222134395687
 30
0.0
 10
220.5568810135863
 20
165.7221212745496
 30
0.0
 10
220.4190771032678
 20
165.7465814686311
 30
0.0
 10
220.3188247585111
 20
165.6766459841445
 30
0.0
 10
220.2981541719633
 20
165.662176573561
 30
0.0
 10
220.2798951538462
 20
165.643573045668
 30
0.0
 10
220.2647367237111
 20
165.6222134395687
 30
0.0
  0
HATCH
  5
5ED
330
5E8
100
AcDbEntity
  8
0
 62
   250
420
  1842203
100
AcDbHatch
 10
0.0
 20
0.0
 30
0.0
210
0.0
220
0.0
230
1.0
  2
SOLID
 70
     1
 71
     0
 91
        1
 92
        1
 93
        2
 72
     4
 94
        3
 73
     0
 74
     0
 95
       11
 96
        7
 40
0.0
 40
0.0
 40
0.0
 40
0.0
 40
0.3527780104152769
 40
0.3527780104152769
 40
0.3527780104152769
 40
0.7055560208305538
 40
0.7055560208305538
 40
0.7055560208305538
 40
0.7055560208305538
 10
220.6264719882971
 20
165.6222134395687
 10
220.5568810135863
 20
165.7221212745496
 10
220.4190771032678
 20
165.7465814686311
 10
220.3188247585111
 20
165.6766459841445
 10
220.2981541719633
 20
165.662176573561
 10
220.2798951538462
 20
165.643573045668
 10
220.2647367237111
 20
165.6222134395687
 72
     1
 10
220.2647367237111
 20
165.6222134395687
 11
220.6264719882971
 21
165.6222134395687
 97
        0
 75
     2
 76
     1
 98
        0
  0
ENDBLK
  5
5EB
330
5E8
100
AcDbEntity
  8
0
100
AcDbBlockEnd
  0
BLOCK
  5
5F0
330
5EE
100
AcDbEntity
  8
0
100
AcDbBlockBegin
  2
block 175
 70
     0
 71
     0
 10
0.0
 20
0.0
 30
0.0
  3
block 175
  1

  0
SPLINE
  5
5F2
330
5EE
100
AcDbEntity
  8
0
 62
   250
420
  1842203
370
     9
100
AcDbSpline
210
0.0
220
0.0
230
1.0
 70
     8
 71
     3
 72
    11
 73
     7
 74
     0
 42
0.0000000001
 43
0.0000000001
 40
0.0
 40
0.0
 40
0.0
 40
0.0
 40
1.0
 40
1.0
 40
1.0
 40
2.0
 40
2.0
 40
2.0
 40
2.0
 10
199.9328032855486
 20
165.6222134395687
 30
0.0
 10
199.862867801062
 20
165.7221212745496
 30
0.0
 10
199.7250638907435
 20
165.7465814686311
 30
0.0
 10
199.6253283106506
 20
165.6766459841445
 30
0.0
 10
199.6041409594391
 20
165.662176573561
 30
0.0
 10
199.585709686434
 20
165.643573045668
 30
0.0
 10
199.5708957660748
 20
165.6222134395687
 30
0.0
  0
HATCH
  5
5F3
330
5EE
100
AcDbEntity
  8
0
 62
   250
420
  1842203
100
AcDbHatch
 10
0.0
 20
0.0
 30
0.0
210
0.0
220
0.0
230
1.0
  2
SOLID
 70
     1
 71
     0
 91
        1
 92
        1
 93
        2
 72
     4
 94
        3
 73
     0
 74
     0
 95
       11
 96
        7
 40
0.0
 40
0.0
 40
0.0
 40
0.0
 40
0.3527780104152769
 40
0.3527780104152769
 40
0.3527780104152769
 40
0.7055560208305538
 40
0.7055560208305538
 40
0.7055560208305538
 40
0.7055560208305538
 10
199.9328032855486
 20
165.6222134395687
 10
199.862867801062
 20
165.7221212745496
 10
199.7250638907435
 20
165.7465814686311
 10
199.6253283106506
 20
165.6766459841445
 10
199.6041409594391
 20
165.662176573561
 10
199.585709686434
 20
165.643573045668
 10
199.5708957660748
 20
165.6222134395687
 72
     1
 10
199.5708957660748
 20
165.6222134395687
 11
199.9328032855486
 21
165.6222134395687
 97
        0
 75
     2
 76
     1
 98
        0
  0
ENDBLK
  5
5F1
330
5EE
100
AcDbEntity
  8
0
100
AcDbBlockEnd
  0
BLOCK
  5
5F6
330
5F4
100
AcDbEntity
  8
0
100
AcDbBlockBegin
  2
block 176
 70
     0
 71
     0
 10
0.0
 20
0.0
 30
0.0
  3
block 176
  1

  0
SPLINE
  5
5F8
330
5F4
100
AcDbEntity
  8
0
 62
   250
420
  1842203
370
     9
100
AcDbSpline
210
0.0
220
0.0
230
1.0
 70
     8
 71
     3
 72
     8
 73
     4
 74
     0
 42
0.0000000001
 43
0.0000000001
 40
0.0
 40
0.0
 40
0.0
 40
0.0
 40
1.0
 40
1.0
 40
1.0
 40
1.0
 10
199.5862264510977
 20
165.2184479823356
 30
0.0
 10
199.5920831172862
 20
165.2267162169547
 30
0.0
 10
199.5972507639232
 20
165.2356734711254
 30
0.0
 10
199.6017293910085
 20
165.2453197448477
 30
0.0
  0
HATCH
  5
5F9
330
5F4
100
AcDbEntity
  8
0
 62
   250
420
  1842203
100
AcDbHatch
 10
0.0
 20
0.0
 30
0.0
210
0.0
220
0.0
230
1.0
  2
SOLID
 70
     1
 71
     0
 91
        1
 92
        1
 93
        2
 72
     4
 94
        3
 73
     0
 74
     0
 95
        8
 96
        4
 40
0.0
 40
0.0
 40
0.0
 40
0.0
 40
0.3527780104152769
 40
0.3527780104152769
 40
0.3527780104152769
 40
0.3527780104152769
 10
199.5862264510977
 20
165.2184479823356
 10
199.5920831172862
 20
165.2267162169547
 10
199.5972507639232
 20
165.2356734711254
 10
199.6017293910085
 20
165.2453197448477
 72
     1
 10
199.6017293910085
 20
165.2453197448477
 11
199.5862264510977
 21
165.2184479823356
 97
        0
 75
     2
 76
     1
 98
        0
  0
ENDBLK
  5
5F7
330
5F4
100
AcDbEntity
  8
0
100
AcDbBlockEnd
  0
BLOCK
  5
5FC
330
5FA
100
AcDbEntity
  8
0
100
AcDbBlockBegin
  2
block 177
 70
     0
 71
     0
 10
0.0
 20
0.0
 30
0.0
  3
block 177
  1

  0
SPLINE
  5
5FE
330
5FA
100
AcDbEntity
  8
0
 62
   250
420
  1842203
370
     9
100
AcDbSpline
210
0.0
220
0.0
230
1.0
 70
     8
 71
     3
 72
    11
 73
     7
 74
     0
 42
0.0000000001
 43
0.0000000001
 40
0.0
 40
0.0
 40
0.0
 40
0.0
 40
1.0
 40
1.0
 40
1.0
 40
2.0
 40
2.0
 40
2.0
 40
2.0
 10
199.6017293910085
 20
165.3907028702337
 30
0.0
 10
199.5614217472404
 20
165.4771748239585
 30
0.0
 10
199.4587578340531
 20
165.5143818797445
 30
0.0
 10
199.3726303901041
 20
165.4744187457521
 30
0.0
 10
199.3116521597881
 20
165.445824434361
 30
0.0
 10
199.2728948100111
 20
165.3851907138209
 30
0.0
 10
199.2728948100111
 20
165.3180113075407
 30
0.0
  0
HATCH
  5
5FF
330
5FA
100
AcDbEntity
  8
0
 62
   250
420
  1842203
100
AcDbHatch
 10
0.0
 20
0.0
 30
0.0
210
0.0
220
0.0
230
1.0
  2
SOLID
 70
     1
 71
     0
 91
        1
 92
        1
 93
        2
 72
     4
 94
        3
 73
     0
 74
     0
 95
       11
 96
        7
 40
0.0
 40
0.0
 40
0.0
 40
0.0
 40
0.3527780104152769
 40
0.3527780104152769
 40
0.3527780104152769
 40
0.7055560208305538
 40
0.7055560208305538
 40
0.7055560208305538
 40
0.7055560208305538
 10
199.6017293910085
 20
165.3907028702337
 10
199.5614217472404
 20
165.4771748239585
 10
199.4587578340531
 20
165.5143818797445
 10
199.3726303901041
 20
165.4744187457521
 10
199.3116521597881
 20
165.445824434361
 10
199.2728948100111
 20
165.3851907138209
 10
199.2728948100111
 20
165.3180113075407
 72
     1
 10
199.2728948100111
 20
165.3180113075407
 11
199.6017293910085
 21
165.3907028702337
 97
        0
 75
     2
 76
     1
 98
        0
  0
ENDBLK
  5
5FD
330
5FA
100
AcDbEntity
  8
0
100
AcDbBlockEnd
  0
BLOCK
  5
602
330
600
100
AcDbEntity
  8
0
100
AcDbBlockBegin
  2
block 178
 70
     0
 71
     0
 10
0.0
 20
0.0
 30
0.0
  3
block 178
  1

  0
SPLINE
  5
604
330
600
100
AcDbEntity
  8
0
 62
   250
420
  1842203
370
     9
100
AcDbSpline
210
0.0
220
0.0
230
1.0
 70
     8
 71
     3
 72
    11
 73
     7
 74
     0
 42
0.0000000001
 43
0.0000000001
 40
0.0
 40
0.0
 40
0.0
 40
0.0
 40
1.0
 40
1.0
 40
1.0
 40
2.0
 40
2.0
 40
2.0
 40
2.0
 10
199.5343777298404
 20
165.3907028702337
 30
0.0
 10
199.4940700860722
 20
165.4399677681725
 30
0.0
 10
199.421723033155
 20
165.4472024734642
 30
0.0
 10
199.3726303901041
 20
165.4068948296961
 30
0.0
 10
199.3459308824798
 20
165.3851907138209
 30
0.0
 10
199.330427942569
 20
165.3524622851203
 30
0.0
 10
199.330427942569
 20
165.3180113075407
 30
0.0
  0
HATCH
  5
605
330
600
100
AcDbEntity
  8
0
 62
   250
420
  1842203
100
AcDbHatch
 10
0.0
 20
0.0
 30
0.0
210
0.0
220
0.0
230
1.0
  2
SOLID
 70
     1
 71
     0
 91
        1
 92
        1
 93
        2
 72
     4
 94
        3
 73
     0
 74
     0
 95
       11
 96
        7
 40
0.0
 40
0.0
 40
0.0
 40
0.0
 40
0.3527780104152769
 40
0.3527780104152769
 40
0.3527780104152769
 40
0.7055560208305538
 40
0.7055560208305538
 40
0.7055560208305538
 40
0.7055560208305538
 10
199.5343777298404
 20
165.3907028702337
 10
199.4940700860722
 20
165.4399677681725
 10
199.421723033155
 20
165.4472024734642
 10
199.3726303901041
 20
165.4068948296961
 10
199.3459308824798
 20
165.3851907138209
 10
199.330427942569
 20
165.3524622851203
 10
199.330427942569
 20
165.3180113075407
 72
     1
 10
199.330427942569
 20
165.3180113075407
 11
199.5343777298404
 21
165.3907028702337
 97
        0
 75
     2
 76
     1
 98
        0
  0
ENDBLK
  5
603
330
600
100
AcDbEntity
  8
0
100
AcDbBlockEnd
  0
BLOCK
  5
608
330
606
100
AcDbEntity
  8
0
100
AcDbBlockBegin
  2
block 179
 70
     0
 71
     0
 10
0.0
 20
0.0
 30
0.0
  3
block 179
  1

  0
SPLINE
  5
60A
330
606
100
AcDbEntity
  8
0
 62
   250
420
  1842203
370
     9
100
AcDbSpline
210
0.0
220
0.0
230
1.0
 70
     8
 71
     3
 72
     8
 73
     4
 74
     0
 42
0.0000000001
 43
0.0000000001
 40
0.0
 40
0.0
 40
0.0
 40
0.0
 40
1.0
 40
1.0
 40
1.0
 40
1.0
 10
199.5026828304671
 20
165.2184479823356
 30
0.0
 10
199.51474067262
 20
165.2253381778515
 30
0.0
 10
199.5254204756696
 20
165.2342954320222
 30
0.0
 10
199.5343777298404
 20
165.2453197448477
 30
0.0
  0
HATCH
  5
60B
330
606
100
AcDbEntity
  8
0
 62
   250
420
  1842203
100
AcDbHatch
 10
0.0
 20
0.0
 30
0.0
210
0.0
220
0.0
230
1.0
  2
SOLID
 70
     1
 71
     0
 91
        1
 92
        1
 93
        2
 72
     4
 94
        3
 73
     0
 74
     0
 95
        8
 96
        4
 40
0.0
 40
0.0
 40
0.0
 40
0.0
 40
0.3527780104152769
 40
0.3527780104152769
 40
0.3527780104152769
 40
0.3527780104152769
 10
199.5026828304671
 20
165.2184479823356
 10
199.51474067262
 20
165.2253381778515
 10
199.5254204756696
 20
165.2342954320222
 10
199.5343777298404
 20
165.2453197448477
 72
     1
 10
199.5343777298404
 20
165.2453197448477
 11
199.5026828304671
 21
165.2184479823356
 97
        0
 75
     2
 76
     1
 98
        0
  0
ENDBLK
  5
609
330
606
100
AcDbEntity
  8
0
100
AcDbBlockEnd
  0
BLOCK
  5
60E
330
60C
100
AcDbEntity
  8
0
100
AcDbBlockBegin
  2
block 180
 70
     0
 71
     0
 10
0.0
 20
0.0
 30
0.0
  3
block 180
  1

  0
SPLINE
  5
610
330
60C
100
AcDbEntity
  8
0
 62
   250
420
  1842203
370
     9
100
AcDbSpline
210
0.0
220
0.0
230
1.0
 70
    11
 71
     3
 72
    20
 73
    16
 74
     0
 42
0.0000000001
 43
0.0000000001
 40
0.0
 40
0.0
 40
0.0
 40
0.0
 40
1.0
 40
1.0
 40
1.0
 40
2.0
 40
2.0
 40
2.0
 40
3.0
 40
3.0
 40
3.0
 40
4.0
 40
4.0
 40
4.0
 40
5.0
 40
5.0
 40
5.0
 40
5.0
 10
220.5417225834512
 20
165.5633022679075
 30
0.0
 10
220.5417225834512
 20
165.6160122636043
 30
0.0
 10
220.4986588614767
 20
165.6590759855789
 30
0.0
 10
220.4456043560041
 20
165.6590759855789
 30
0.0
 10
220.3928943603073
 20
165.6590759855789
 30
0.0
 10
220.3501751481086
 20
165.6160122636043
 30
0.0
 10
220.3501751481086
 20
165.5633022679075
 30
0.0
 10
220.3501751481086
 20
165.5102477624349
 30
0.0
 10
220.3928943603073
 20
165.4671840404604
 30
0.0
 10
220.4456043560041
 20
165.4671840404604
 30
0.0
 10
220.4986588614767
 20
165.4671840404604
 30
0.0
 10
220.5417225834512
 20
165.5102477624349
 30
0.0
 10
220.5417225834512
 20
165.5633022679075
 30
0.0
 10
220.5417225834512
 20
165.5633022679075
 30
0.0
 10
220.5417225834512
 20
165.5633022679075
 30
0.0
 10
220.5417225834512
 20
165.5633022679075
 30
0.0
  0
HATCH
  5
611
330
60C
100
AcDbEntity
  8
0
 62
   250
420
  1842203
100
AcDbHatch
 10
0.0
 20
0.0
 30
0.0
210
0.0
220
0.0
230
1.0
  2
SOLID
 70
     1
 71
     0
 91
        1
 92
        1
 93
        1
 72
     4
 94
        3
 73
     0
 74
     1
 95
       20
 96
       16
 40
0.0
 40
0.0
 40
0.0
 40
0.0
 40
1.0
 40
1.0
 40
1.0
 40
2.0
 40
2.0
 40
2.0
 40
3.0
 40
3.0
 40
3.0
 40
4.0
 40
4.0
 40
4.0
 40
5.0
 40
5.0
 40
5.0
 40
5.0
 10
220.5417225834512
 20
165.5633022679075
 10
220.5417225834512
 20
165.6160122636043
 10
220.4986588614767
 20
165.6590759855789
 10
220.4456043560041
 20
165.6590759855789
 10
220.3928943603073
 20
165.6590759855789
 10
220.3501751481086
 20
165.6160122636043
 10
220.3501751481086
 20
165.5633022679075
 10
220.3501751481086
 20
165.5102477624349
 10
220.3928943603073
 20
165.4671840404604
 10
220.4456043560041
 20
165.4671840404604
 10
220.4986588614767
 20
165.4671840404604
 10
220.5417225834512
 20
165.5102477624349
 10
220.5417225834512
 20
165.5633022679075
 10
220.5417225834512
 20
165.5633022679075
 10
220.5417225834512
 20
165.5633022679075
 10
220.5417225834512
 20
165.5633022679075
 97
        0
 75
     2
 76
     1
 98
        0
  0
ENDBLK
  5
60F
330
60C
100
AcDbEntity
  8
0
100
AcDbBlockEnd
  0
BLOCK
  5
614
330
612
100
AcDbEntity
  8
0
100
AcDbBlockBegin
  2
block 181
 70
     0
 71
     0
 10
0.0
 20
0.0
 30
0.0
  3
block 181
  1

  0
SPLINE
  5
616
330
612
100
AcDbEntity
  8
0
 62
   250
420
  1842203
370
     9
100
AcDbSpline
210
0.0
220
0.0
230
1.0
 70
    11
 71
     3
 72
    20
 73
    16
 74
     0
 42
0.0000000001
 43
0.0000000001
 40
0.0
 40
0.0
 40
0.0
 40
0.0
 40
1.0
 40
1.0
 40
1.0
 40
2.0
 40
2.0
 40
2.0
 40
3.0
 40
3.0
 40
3.0
 40
4.0
 40
4.0
 40
4.0
 40
5.0
 40
5.0
 40
5.0
 40
5.0
 10
199.847709370927
 20
165.5633022679075
 30
0.0
 10
199.847709370927
 20
165.6160122636043
 30
0.0
 10
199.8049901587283
 20
165.6590759855789
 30
0.0
 10
199.7519356532556
 20
165.6590759855789
 30
0.0
 10
199.698881147783
 20
165.6590759855789
 30
0.0
 10
199.6559896806964
 20
165.6160122636043
 30
0.0
 10
199.6559896806964
 20
165.5633022679075
 30
0.0
 10
199.6559896806964
 20
165.5102477624349
 30
0.0
 10
199.698881147783
 20
165.4671840404604
 30
0.0
 10
199.7519356532556
 20
165.4671840404604
 30
0.0
 10
199.8049901587283
 20
165.4671840404604
 30
0.0
 10
199.847709370927
 20
165.5102477624349
 30
0.0
 10
199.847709370927
 20
165.5633022679075
 30
0.0
 10
199.847709370927
 20
165.5633022679075
 30
0.0
 10
199.847709370927
 20
165.5633022679075
 30
0.0
 10
199.847709370927
 20
165.5633022679075
 30
0.0
  0
HATCH
  5
617
330
612
100
AcDbEntity
  8
0
 62
   250
420
  1842203
100
AcDbHatch
 10
0.0
 20
0.0
 30
0.0
210
0.0
220
0.0
230
1.0
  2
SOLID
 70
     1
 71
     0
 91
        1
 92
        1
 93
        1
 72
     4
 94
        3
 73
     0
 74
     1
 95
       20
 96
       16
 40
0.0
 40
0.0
 40
0.0
 40
0.0
 40
1.0
 40
1.0
 40
1.0
 40
2.0
 40
2.0
 40
2.0
 40
3.0
 40
3.0
 40
3.0
 40
4.0
 40
4.0
 40
4.0
 40
5.0
 40
5.0
 40
5.0
 40
5.0
 10
199.847709370927
 20
165.5633022679075
 10
199.847709370927
 20
165.6160122636043
 10
199.8049901587283
 20
165.6590759855789
 10
199.7519356532556
 20
165.6590759855789
 10
199.698881147783
 20
165.6590759855789
 10
199.6559896806964
 20
165.6160122636043
 10
199.6559896806964
 20
165.5633022679075
 10
199.6559896806964
 20
165.5102477624349
 10
199.698881147783
 20
165.4671840404604
 10
199.7519356532556
 20
165.4671840404604
 10
199.8049901587283
 20
165.4671840404604
 10
199.847709370927
 20
165.5102477624349
 10
199.847709370927
 20
165.5633022679075
 10
199.847709370927
 20
165.5633022679075
 10
199.847709370927
 20
165.5633022679075
 10
199.847709370927
 20
165.5633022679075
 97
        0
 75
     2
 76
     1
 98
        0
  0
ENDBLK
  5
615
330
612
100
AcDbEntity
  8
0
100
AcDbBlockEnd
  0
BLOCK
  5
61A
330
618
100
AcDbEntity
  8
0
100
AcDbBlockBegin
  2
block 182
 70
     0
 71
     0
 10
0.0
 20
0.0
 30
0.0
  3
block 182
  1

  0
SPLINE
  5
61C
330
618
100
AcDbEntity
  8
0
 62
   250
420
  1842203
370
     9
100
AcDbSpline
210
0.0
220
0.0
230
1.0
 70
     8
 71
     3
 72
    11
 73
     7
 74
     0
 42
0.0000000001
 43
0.0000000001
 40
0.0
 40
0.0
 40
0.0
 40
0.0
 40
1.0
 40
1.0
 40
1.0
 40
2.0
 40
2.0
 40
2.0
 40
2.0
 10
199.4453219527971
 20
165.3907028702337
 30
0.0
 10
199.4051865639168
 20
165.3907028702337
 30
0.0
 10
199.3726303901041
 20
165.3583189513088
 30
0.0
 10
199.3726303901041
 20
165.3180113075407
 30
0.0
 10
199.3726303901041
 20
165.2777036637725
 30
0.0
 10
199.4051865639168
 20
165.2453197448477
 30
0.0
 10
199.4453219527971
 20
165.2453197448477
 30
0.0
  0
HATCH
  5
61D
330
618
100
AcDbEntity
  8
0
 62
   250
420
  1842203
100
AcDbHatch
 10
0.0
 20
0.0
 30
0.0
210
0.0
220
0.0
230
1.0
  2
SOLID
 70
     1
 71
     0
 91
        1
 92
        1
 93
        2
 72
     4
 94
        3
 73
     0
 74
     0
 95
       11
 96
        7
 40
0.0
 40
0.0
 40
0.0
 40
0.0
 40
0.3527780104152769
 40
0.3527780104152769
 40
0.3527780104152769
 40
0.7055560208305538
 40
0.7055560208305538
 40
0.7055560208305538
 40
0.7055560208305538
 10
199.4453219527971
 20
165.3907028702337
 10
199.4051865639168
 20
165.3907028702337
 10
199.3726303901041
 20
165.3583189513088
 10
199.3726303901041
 20
165.3180113075407
 10
199.3726303901041
 20
165.2777036637725
 10
199.4051865639168
 20
165.2453197448477
 10
199.4453219527971
 20
165.2453197448477
 72
     1
 10
199.4453219527971
 20
165.2453197448477
 11
199.4453219527971
 21
165.3907028702337
 97
        0
 75
     2
 76
     1
 98
        0
  0
ENDBLK
  5
61B
330
618
100
AcDbEntity
  8
0
100
AcDbBlockEnd
  0
BLOCK
  5
620
330
61E
100
AcDbEntity
  8
0
100
AcDbBlockBegin
  2
block 183
 70
     0
 71
     0
 10
0.0
 20
0.0
 30
0.0
  3
block 183
  1

  0
SPLINE
  5
622
330
61E
100
AcDbEntity
  8
0
 62
   250
420
  1842203
370
     9
100
AcDbSpline
210
0.0
220
0.0
230
1.0
 70
     8
 71
     3
 72
     8
 73
     4
 74
     0
 42
0.0000000001
 43
0.0000000001
 40
0.0
 40
0.0
 40
0.0
 40
0.0
 40
1.0
 40
1.0
 40
1.0
 40
1.0
 10
199.3113076500123
 20
165.2604781749827
 30
0.0
 10
199.3218151981741
 20
165.2604781749827
 30
0.0
 10
199.330427942569
 20
165.2690909193776
 30
0.0
 10
199.330427942569
 20
165.2797707224273
 30
0.0
  0
HATCH
  5
623
330
61E
100
AcDbEntity
  8
0
 62
   250
420
  1842203
100
AcDbHatch
 10
0.0
 20
0.0
 30
0.0
210
0.0
220
0.0
230
1.0
  2
SOLID
 70
     1
 71
     0
 91
        1
 92
        1
 93
        2
 72
     4
 94
        3
 73
     0
 74
     0
 95
        8
 96
        4
 40
0.0
 40
0.0
 40
0.0
 40
0.0
 40
0.3527780104152769
 40
0.3527780104152769
 40
0.3527780104152769
 40
0.3527780104152769
 10
199.3113076500123
 20
165.2604781749827
 10
199.3218151981741
 20
165.2604781749827
 10
199.330427942569
 20
165.2690909193776
 10
199.330427942569
 20
165.2797707224273
 72
     1
 10
199.330427942569
 20
165.2797707224273
 11
199.3113076500123
 21
165.2604781749827
 97
        0
 75
     2
 76
     1
 98
        0
  0
ENDBLK
  5
621
330
61E
100
AcDbEntity
  8
0
100
AcDbBlockEnd
  0
BLOCK
  5
626
330
624
100
AcDbEntity
  8
0
100
AcDbBlockBegin
  2
block 184
 70
     0
 71
     0
 10
0.0
 20
0.0
 30
0.0
  3
block 184
  1

  0
SPLINE
  5
628
330
624
100
AcDbEntity
  8
0
 62
   250
420
  1842203
370
     9
100
AcDbSpline
210
0.0
220
0.0
230
1.0
 70
     8
 71
     3
 72
     8
 73
     4
 74
     0
 42
0.0000000001
 43
0.0000000001
 40
0.0
 40
0.0
 40
0.0
 40
0.0
 40
1.0
 40
1.0
 40
1.0
 40
1.0
 10
199.1235498222034
 20
165.3180113075407
 30
0.0
 10
199.1287174688404
 20
165.3180113075407
 30
0.0
 10
199.1330238410378
 20
165.3221454248502
 30
0.0
 10
199.1330238410378
 20
165.327657581263
 30
0.0
  0
HATCH
  5
629
330
624
100
AcDbEntity
  8
0
 62
   250
420
  1842203
100
AcDbHatch
 10
0.0
 20
0.0
 30
0.0
210
0.0
220
0.0
230
1.0
  2
SOLID
 70
     1
 71
     0
 91
        1
 92
        1
 93
        2
 72
     4
 94
        3
 73
     0
 74
     0
 95
        8
 96
        4
 40
0.0
 40
0.0
 40
0.0
 40
0.0
 40
0.3527780104152769
 40
0.3527780104152769
 40
0.3527780104152769
 40
0.3527780104152769
 10
199.1235498222034
 20
165.3180113075407
 10
199.1287174688404
 20
165.3180113075407
 10
199.1330238410378
 20
165.3221454248502
 10
199.1330238410378
 20
165.327657581263
 72
     1
 10
199.1330238410378
 20
165.327657581263
 11
199.1235498222034
 21
165.3180113075407
 97
        0
 75
     2
 76
     1
 98
        0
  0
ENDBLK
  5
627
330
624
100
AcDbEntity
  8
0
100
AcDbBlockEnd
  0
BLOCK
  5
62C
330
62A
100
AcDbEntity
  8
0
100
AcDbBlockBegin
  2
block 185
 70
     0
 71
     0
 10
0.0
 20
0.0
 30
0.0
  3
block 185
  1

  0
SPLINE
  5
62E
330
62A
100
AcDbEntity
  8
0
 62
   250
420
  1842203
370
     9
100
AcDbSpline
210
0.0
220
0.0
230
1.0
 70
     8
 71
     3
 72
     8
 73
     4
 74
     0
 42
0.0000000001
 43
0.0000000001
 40
0.0
 40
0.0
 40
0.0
 40
0.0
 40
1.0
 40
1.0
 40
1.0
 40
1.0
 10
198.8763640580697
 20
165.327657581263
 30
0.0
 10
198.8763640580697
 20
165.3221454248502
 30
0.0
 10
198.8804981753792
 20
165.3180113075407
 30
0.0
 10
198.8858380769041
 20
165.3180113075407
 30
0.0
  0
HATCH
  5
62F
330
62A
100
AcDbEntity
  8
0
 62
   250
420
  1842203
100
AcDbHatch
 10
0.0
 20
0.0
 30
0.0
210
0.0
220
0.0
230
1.0
  2
SOLID
 70
     1
 71
     0
 91
        1
 92
        1
 93
        2
 72
     4
 94
        3
 73
     0
 74
     0
 95
        8
 96
        4
 40
0.0
 40
0.0
 40
0.0
 40
0.0
 40
0.3527780104152769
 40
0.3527780104152769
 40
0.3527780104152769
 40
0.3527780104152769
 10
198.8763640580697
 20
165.327657581263
 10
198.8763640580697
 20
165.3221454248502
 10
198.8804981753792
 20
165.3180113075407
 10
198.8858380769041
 20
165.3180113075407
 72
     1
 10
198.8858380769041
 20
165.3180113075407
 11
198.8763640580697
 21
165.327657581263
 97
        0
 75
     2
 76
     1
 98
        0
  0
ENDBLK
  5
62D
330
62A
100
AcDbEntity
  8
0
100
AcDbBlockEnd
  0
BLOCK
  5
632
330
630
100
AcDbEntity
  8
0
100
AcDbBlockBegin
  2
block 186
 70
     0
 71
     0
 10
0.0
 20
0.0
 30
0.0
  3
block 186
  1

  0
SPLINE
  5
634
330
630
100
AcDbEntity
  8
0
 62
   250
420
  1842203
370
     9
100
AcDbSpline
210
0.0
220
0.0
230
1.0
 70
     8
 71
     3
 72
     8
 73
     4
 74
     0
 42
0.0000000001
 43
0.0000000001
 40
0.0
 40
0.0
 40
0.0
 40
0.0
 40
1.0
 40
1.0
 40
1.0
 40
1.0
 10
198.8813594498187
 20
165.378300518305
 30
0.0
 10
198.8784311167244
 20
165.376577969426
 30
0.0
 10
198.8763640580697
 20
165.373132871668
 30
0.0
 10
198.8763640580697
 20
165.3696877739101
 30
0.0
  0
HATCH
  5
635
330
630
100
AcDbEntity
  8
0
 62
   250
420
  1842203
100
AcDbHatch
 10
0.0
 20
0.0
 30
0.0
210
0.0
220
0.0
230
1.0
  2
SOLID
 70
     1
 71
     0
 91
        1
 92
        1
 93
        2
 72
     4
 94
        3
 73
     0
 74
     0
 95
        8
 96
        4
 40
0.0
 40
0.0
 40
0.0
 40
0.0
 40
0.3527780104152769
 40
0.3527780104152769
 40
0.3527780104152769
 40
0.3527780104152769
 10
198.8813594498187
 20
165.378300518305
 10
198.8784311167244
 20
165.376577969426
 10
198.8763640580697
 20
165.373132871668
 10
198.8763640580697
 20
165.3696877739101
 72
     1
 10
198.8763640580697
 20
165.3696877739101
 11
198.8813594498187
 21
165.378300518305
 97
        0
 75
     2
 76
     1
 98
        0
  0
ENDBLK
  5
633
330
630
100
AcDbEntity
  8
0
100
AcDbBlockEnd
  0
BLOCK
  5
638
330
636
100
AcDbEntity
  8
0
100
AcDbBlockBegin
  2
block 187
 70
     0
 71
     0
 10
0.0
 20
0.0
 30
0.0
  3
block 187
  1

  0
SPLINE
  5
63A
330
636
100
AcDbEntity
  8
0
 62
   250
420
  1842203
370
     9
100
AcDbSpline
210
0.0
220
0.0
230
1.0
 70
     8
 71
     3
 72
     8
 73
     4
 74
     0
 42
0.0000000001
 43
0.0000000001
 40
0.0
 40
0.0
 40
0.0
 40
0.0
 40
1.0
 40
1.0
 40
1.0
 40
1.0
 10
199.1330238410378
 20
165.3696877739101
 30
0.0
 10
199.1330238410378
 20
165.373132871668
 30
0.0
 10
199.1311290372709
 20
165.376577969426
 30
0.0
 10
199.1278561944009
 20
165.378300518305
 30
0.0
  0
HATCH
  5
63B
330
636
100
AcDbEntity
  8
0
 62
   250
420
  1842203
100
AcDbHatch
 10
0.0
 20
0.0
 30
0.0
210
0.0
220
0.0
230
1.0
  2
SOLID
 70
     1
 71
     0
 91
        1
 92
        1
 93
        2
 72
     4
 94
        3
 73
     0
 74
     0
 95
        8
 96
        4
 40
0.0
 40
0.0
 40
0.0
 40
0.0
 40
0.3527780104152769
 40
0.3527780104152769
 40
0.3527780104152769
 40
0.3527780104152769
 10
199.1330238410378
 20
165.3696877739101
 10
199.1330238410378
 20
165.373132871668
 10
199.1311290372709
 20
165.376577969426
 10
199.1278561944009
 20
165.378300518305
 72
     1
 10
199.1278561944009
 20
165.378300518305
 11
199.1330238410378
 21
165.3696877739101
 97
        0
 75
     2
 76
     1
 98
        0
  0
ENDBLK
  5
639
330
636
100
AcDbEntity
  8
0
100
AcDbBlockEnd
  0
BLOCK
  5
63E
330
63C
100
AcDbEntity
  8
0
100
AcDbBlockBegin
  2
block 188
 70
     0
 71
     0
 10
0.0
 20
0.0
 30
0.0
  3
block 188
  1

  0
SPLINE
  5
640
330
63C
100
AcDbEntity
  8
0
 62
   250
420
  1842203
370
     9
100
AcDbSpline
210
0.0
220
0.0
230
1.0
 70
     8
 71
     3
 72
    11
 73
     7
 74
     0
 42
0.0000000001
 43
0.0000000001
 40
0.0
 40
0.0
 40
0.0
 40
0.0
 40
1.0
 40
1.0
 40
1.0
 40
2.0
 40
2.0
 40
2.0
 40
2.0
 10
202.5207607213295
 20
165.5429761911356
 30
0.0
 10
202.5205884664416
 20
165.5484883475483
 30
0.0
 10
202.5161098393562
 20
165.552277955082
 30
0.0
 10
202.5107699378314
 20
165.5519334453063
 30
0.0
 10
202.5056022911944
 20
165.5519334453063
 30
0.0
 10
202.5014681738849
 20
165.5474548182209
 30
0.0
 10
202.5014681738849
 20
165.542287171584
 30
0.0
  0
HATCH
  5
641
330
63C
100
AcDbEntity
  8
0
 62
   250
420
  1842203
100
AcDbHatch
 10
0.0
 20
0.0
 30
0.0
210
0.0
220
0.0
230
1.0
  2
SOLID
 70
     1
 71
     0
 91
        1
 92
        1
 93
        2
 72
     4
 94
        3
 73
     0
 74
     0
 95
       11
 96
        7
 40
0.0
 40
0.0
 40
0.0
 40
0.0
 40
0.3527780104152769
 40
0.3527780104152769
 40
0.3527780104152769
 40
0.7055560208305538
 40
0.7055560208305538
 40
0.7055560208305538
 40
0.7055560208305538
 10
202.5207607213295
 20
165.5429761911356
 10
202.5205884664416
 20
165.5484883475483
 10
202.5161098393562
 20
165.552277955082
 10
202.5107699378314
 20
165.5519334453063
 10
202.5056022911944
 20
165.5519334453063
 10
202.5014681738849
 20
165.5474548182209
 10
202.5014681738849
 20
165.542287171584
 72
     1
 10
202.5014681738849
 20
165.542287171584
 11
202.5207607213295
 21
165.5429761911356
 97
        0
 75
     2
 76
     1
 98
        0
  0
ENDBLK
  5
63F
330
63C
100
AcDbEntity
  8
0
100
AcDbBlockEnd
  0
BLOCK
  5
644
330
642
100
AcDbEntity
  8
0
100
AcDbBlockBegin
  2
block 189
 70
     0
 71
     0
 10
0.0
 20
0.0
 30
0.0
  3
block 189
  1

  0
SPLINE
  5
646
330
642
100
AcDbEntity
  8
0
 62
   250
420
  1842203
370
     9
100
AcDbSpline
210
0.0
220
0.0
230
1.0
 70
     8
 71
     3
 72
    11
 73
     7
 74
     0
 42
0.0000000001
 43
0.0000000001
 40
0.0
 40
0.0
 40
0.0
 40
0.0
 40
1.0
 40
1.0
 40
1.0
 40
2.0
 40
2.0
 40
2.0
 40
2.0
 10
202.4058667111014
 20
165.538842073826
 30
0.0
 10
202.4053499464377
 20
165.5443542302388
 30
0.0
 10
202.4012158291282
 20
165.5484883475483
 30
0.0
 10
202.3958759276033
 20
165.5481438377725
 30
0.0
 10
202.3905360260785
 20
165.5481438377725
 30
0.0
 10
202.3864019087689
 20
165.5433207009114
 30
0.0
 10
202.3867464185447
 20
165.5381530542744
 30
0.0
  0
HATCH
  5
647
330
642
100
AcDbEntity
  8
0
 62
   250
420
  1842203
100
AcDbHatch
 10
0.0
 20
0.0
 30
0.0
210
0.0
220
0.0
230
1.0
  2
SOLID
 70
     1
 71
     0
 91
        1
 92
        1
 93
        2
 72
     4
 94
        3
 73
     0
 74
     0
 95
       11
 96
        7
 40
0.0
 40
0.0
 40
0.0
 40
0.0
 40
0.3527780104152769
 40
0.3527780104152769
 40
0.3527780104152769
 40
0.7055560208305538
 40
0.7055560208305538
 40
0.7055560208305538
 40
0.7055560208305538
 10
202.4058667111014
 20
165.538842073826
 10
202.4053499464377
 20
165.5443542302388
 10
202.4012158291282
 20
165.5484883475483
 10
202.3958759276033
 20
165.5481438377725
 10
202.3905360260785
 20
165.5481438377725
 10
202.3864019087689
 20
165.5433207009114
 10
202.3867464185447
 20
165.5381530542744
 72
     1
 10
202.3867464185447
 20
165.5381530542744
 11
202.4058667111014
 21
165.538842073826
 97
        0
 75
     2
 76
     1
 98
        0
  0
ENDBLK
  5
645
330
642
100
AcDbEntity
  8
0
100
AcDbBlockEnd
  0
BLOCK
  5
64A
330
648
100
AcDbEntity
  8
0
100
AcDbBlockBegin
  2
block 190
 70
     0
 71
     0
 10
0.0
 20
0.0
 30
0.0
  3
block 190
  1

  0
SPLINE
  5
64C
330
648
100
AcDbEntity
  8
0
 62
   250
420
  1842203
370
     9
100
AcDbSpline
210
0.0
220
0.0
230
1.0
 70
     8
 71
     3
 72
    11
 73
     7
 74
     0
 42
0.0000000001
 43
0.0000000001
 40
0.0
 40
0.0
 40
0.0
 40
0.0
 40
1.0
 40
1.0
 40
1.0
 40
2.0
 40
2.0
 40
2.0
 40
2.0
 10
202.1759064357575
 20
165.5309183489827
 30
0.0
 10
202.1755619259817
 20
165.5360859956196
 30
0.0
 10
202.1712555537842
 20
165.5402201129292
 30
0.0
 10
202.1659156522594
 20
165.5402201129292
 30
0.0
 10
202.1607480056225
 20
165.5398756031534
 30
0.0
 10
202.156441633425
 20
165.5353969760681
 30
0.0
 10
202.1566138883129
 20
165.5302293294311
 30
0.0
  0
HATCH
  5
64D
330
648
100
AcDbEntity
  8
0
 62
   250
420
  1842203
100
AcDbHatch
 10
0.0
 20
0.0
 30
0.0
210
0.0
220
0.0
230
1.0
  2
SOLID
 70
     1
 71
     0
 91
        1
 92
        1
 93
        2
 72
     4
 94
        3
 73
     0
 74
     0
 95
       11
 96
        7
 40
0.0
 40
0.0
 40
0.0
 40
0.0
 40
0.3527780104152769
 40
0.3527780104152769
 40
0.3527780104152769
 40
0.7055560208305538
 40
0.7055560208305538
 40
0.7055560208305538
 40
0.7055560208305538
 10
202.1759064357575
 20
165.5309183489827
 10
202.1755619259817
 20
165.5360859956196
 10
202.1712555537842
 20
165.5402201129292
 10
202.1659156522594
 20
165.5402201129292
 10
202.1607480056225
 20
165.5398756031534
 10
202.156441633425
 20
165.5353969760681
 10
202.1566138883129
 20
165.5302293294311
 72
     1
 10
202.1566138883129
 20
165.5302293294311
 11
202.1759064357575
 21
165.5309183489827
 97
        0
 75
     2
 76
     1
 98
        0
  0
ENDBLK
  5
64B
330
648
100
AcDbEntity
  8
0
100
AcDbBlockEnd
  0
BLOCK
  5
650
330
64E
100
AcDbEntity
  8
0
100
AcDbBlockBegin
  2
block 191
 70
     0
 71
     0
 10
0.0
 20
0.0
 30
0.0
  3
block 191
  1

  0
SPLINE
  5
652
330
64E
100
AcDbEntity
  8
0
 62
   250
420
  1842203
370
     9
100
AcDbSpline
210
0.0
220
0.0
230
1.0
 70
     8
 71
     3
 72
    11
 73
     7
 74
     0
 42
0.0000000001
 43
0.0000000001
 40
0.0
 40
0.0
 40
0.0
 40
0.0
 40
1.0
 40
1.0
 40
1.0
 40
2.0
 40
2.0
 40
2.0
 40
2.0
 10
202.0608401706416
 20
165.5267842316731
 30
0.0
 10
202.0606679157537
 20
165.5322963880859
 30
0.0
 10
202.0563615435562
 20
165.5364305053954
 30
0.0
 10
202.0510216420314
 20
165.5360859956196
 30
0.0
 10
202.0456817405065
 20
165.5357414858439
 30
0.0
 10
202.041547623197
 20
165.5316073685343
 30
0.0
 10
202.0417198780849
 20
165.5264397218974
 30
0.0
  0
HATCH
  5
653
330
64E
100
AcDbEntity
  8
0
 62
   250
420
  1842203
100
AcDbHatch
 10
0.0
 20
0.0
 30
0.0
210
0.0
220
0.0
230
1.0
  2
SOLID
 70
     1
 71
     0
 91
        1
 92
        1
 93
        2
 72
     4
 94
        3
 73
     0
 74
     0
 95
       11
 96
        7
 40
0.0
 40
0.0
 40
0.0
 40
0.0
 40
0.3527780104152769
 40
0.3527780104152769
 40
0.3527780104152769
 40
0.7055560208305538
 40
0.7055560208305538
 40
0.7055560208305538
 40
0.7055560208305538
 10
202.0608401706416
 20
165.5267842316731
 10
202.0606679157537
 20
165.5322963880859
 10
202.0563615435562
 20
165.5364305053954
 10
202.0510216420314
 20
165.5360859956196
 10
202.0456817405065
 20
165.5357414858439
 10
202.041547623197
 20
165.5316073685343
 10
202.0417198780849
 20
165.5264397218974
 72
     1
 10
202.0417198780849
 20
165.5264397218974
 11
202.0608401706416
 21
165.5267842316731
 97
        0
 75
     2
 76
     1
 98
        0
  0
ENDBLK
  5
651
330
64E
100
AcDbEntity
  8
0
100
AcDbBlockEnd
  0
BLOCK
  5
656
330
654
100
AcDbEntity
  8
0
100
AcDbBlockBegin
  2
block 192
 70
     0
 71
     0
 10
0.0
 20
0.0
 30
0.0
  3
block 192
  1

  0
SPLINE
  5
658
330
654
100
AcDbEntity
  8
0
 62
   250
420
  1842203
370
     9
100
AcDbSpline
210
0.0
220
0.0
230
1.0
 70
     8
 71
     3
 72
    11
 73
     7
 74
     0
 42
0.0000000001
 43
0.0000000001
 40
0.0
 40
0.0
 40
0.0
 40
0.0
 40
1.0
 40
1.0
 40
1.0
 40
2.0
 40
2.0
 40
2.0
 40
2.0
 10
203.287122717588
 20
165.5264397218974
 30
0.0
 10
203.2874672273638
 20
165.5316073685343
 30
0.0
 10
203.2831608551664
 20
165.5357414858439
 30
0.0
 10
203.2779932085294
 20
165.5360859956196
 30
0.0
 10
203.2726533070046
 20
165.5364305053954
 30
0.0
 10
203.2681746799192
 20
165.5322963880859
 30
0.0
 10
203.2680024250313
 20
165.5267842316731
 30
0.0
  0
HATCH
  5
659
330
654
100
AcDbEntity
  8
0
 62
   250
420
  1842203
100
AcDbHatch
 10
0.0
 20
0.0
 30
0.0
210
0.0
220
0.0
230
1.0
  2
SOLID
 70
     1
 71
     0
 91
        1
 92
        1
 93
        2
 72
     4
 94
        3
 73
     0
 74
     0
 95
       11
 96
        7
 40
0.0
 40
0.0
 40
0.0
 40
0.0
 40
0.3527780104152769
 40
0.3527780104152769
 40
0.3527780104152769
 40
0.7055560208305538
 40
0.7055560208305538
 40
0.7055560208305538
 40
0.7055560208305538
 10
203.287122717588
 20
165.5264397218974
 10
203.2874672273638
 20
165.5316073685343
 10
203.2831608551664
 20
165.5357414858439
 10
203.2779932085294
 20
165.5360859956196
 10
203.2726533070046
 20
165.5364305053954
 10
203.2681746799192
 20
165.5322963880859
 10
203.2680024250313
 20
165.5267842316731
 72
     1
 10
203.2680024250313
 20
165.5267842316731
 11
203.287122717588
 21
165.5264397218974
 97
        0
 75
     2
 76
     1
 98
        0
  0
ENDBLK
  5
657
330
654
100
AcDbEntity
  8
0
100
AcDbBlockEnd
  0
BLOCK
  5
65C
330
65A
100
AcDbEntity
  8
0
100
AcDbBlockBegin
  2
block 193
 70
     0
 71
     0
 10
0.0
 20
0.0
 30
0.0
  3
block 193
  1

  0
SPLINE
  5
65E
330
65A
100
AcDbEntity
  8
0
 62
   250
420
  1842203
370
     9
100
AcDbSpline
210
0.0
220
0.0
230
1.0
 70
     8
 71
     3
 72
    11
 73
     7
 74
     0
 42
0.0000000001
 43
0.0000000001
 40
0.0
 40
0.0
 40
0.0
 40
0.0
 40
1.0
 40
1.0
 40
1.0
 40
2.0
 40
2.0
 40
2.0
 40
2.0
 10
203.17222870736
 20
165.5302293294311
 30
0.0
 10
203.1724009622479
 20
165.5353969760681
 30
0.0
 10
203.1682668449384
 20
165.5398756031534
 30
0.0
 10
203.1630991983014
 20
165.5402201129292
 30
0.0
 10
203.1575870418887
 20
165.5402201129292
 30
0.0
 10
203.1532806696912
 20
165.5360859956196
 30
0.0
 10
203.1531084148033
 20
165.5309183489827
 30
0.0
  0
HATCH
  5
65F
330
65A
100
AcDbEntity
  8
0
 62
   250
420
  1842203
100
AcDbHatch
 10
0.0
 20
0.0
 30
0.0
210
0.0
220
0.0
230
1.0
  2
SOLID
 70
     1
 71
     0
 91
        1
 92
        1
 93
        2
 72
     4
 94
        3
 73
     0
 74
     0
 95
       11
 96
        7
 40
0.0
 40
0.0
 40
0.0
 40
0.0
 40
0.3527780104152769
 40
0.3527780104152769
 40
0.3527780104152769
 40
0.7055560208305538
 40
0.7055560208305538
 40
0.7055560208305538
 40
0.7055560208305538
 10
203.17222870736
 20
165.5302293294311
 10
203.1724009622479
 20
165.5353969760681
 10
203.1682668449384
 20
165.5398756031534
 10
203.1630991983014
 20
165.5402201129292
 10
203.1575870418887
 20
165.5402201129292
 10
203.1532806696912
 20
165.5360859956196
 10
203.1531084148033
 20
165.5309183489827
 72
     1
 10
203.1531084148033
 20
165.5309183489827
 11
203.17222870736
 21
165.5302293294311
 97
        0
 75
     2
 76
     1
 98
        0
  0
ENDBLK
  5
65D
330
65A
100
AcDbEntity
  8
0
100
AcDbBlockEnd
  0
BLOCK
  5
662
330
660
100
AcDbEntity
  8
0
100
AcDbBlockBegin
  2
block 194
 70
     0
 71
     0
 10
0.0
 20
0.0
 30
0.0
  3
block 194
  1

  0
SPLINE
  5
664
330
660
100
AcDbEntity
  8
0
 62
   250
420
  1842203
370
     9
100
AcDbSpline
210
0.0
220
0.0
230
1.0
 70
     8
 71
     3
 72
    11
 73
     7
 74
     0
 42
0.0000000001
 43
0.0000000001
 40
0.0
 40
0.0
 40
0.0
 40
0.0
 40
1.0
 40
1.0
 40
1.0
 40
2.0
 40
2.0
 40
2.0
 40
2.0
 10
202.9420961771281
 20
165.5381530542744
 30
0.0
 10
202.9426129417919
 20
165.5433207009114
 30
0.0
 10
202.9383065695944
 20
165.5481438377725
 30
0.0
 10
202.9329666680696
 20
165.5481438377725
 30
0.0
 10
202.9277990214326
 20
165.5484883475483
 30
0.0
 10
202.9231481394594
 20
165.5443542302388
 30
0.0
 10
202.9231481394594
 20
165.538842073826
 30
0.0
  0
HATCH
  5
665
330
660
100
AcDbEntity
  8
0
 62
   250
420
  1842203
100
AcDbHatch
 10
0.0
 20
0.0
 30
0.0
210
0.0
220
0.0
230
1.0
  2
SOLID
 70
     1
 71
     0
 91
        1
 92
        1
 93
        2
 72
     4
 94
        3
 73
     0
 74
     0
 95
       11
 96
        7
 40
0.0
 40
0.0
 40
0.0
 40
0.0
 40
0.3527780104152769
 40
0.3527780104152769
 40
0.3527780104152769
 40
0.7055560208305538
 40
0.7055560208305538
 40
0.7055560208305538
 40
0.7055560208305538
 10
202.9420961771281
 20
165.5381530542744
 10
202.9426129417919
 20
165.5433207009114
 10
202.9383065695944
 20
165.5481438377725
 10
202.9329666680696
 20
165.5481438377725
 10
202.9277990214326
 20
165.5484883475483
 10
202.9231481394594
 20
165.5443542302388
 10
202.9231481394594
 20
165.538842073826
 72
     1
 10
202.9231481394594
 20
165.538842073826
 11
202.9420961771281
 21
165.5381530542744
 97
        0
 75
     2
 76
     1
 98
        0
  0
ENDBLK
  5
663
330
660
100
AcDbEntity
  8
0
100
AcDbBlockEnd
  0
BLOCK
  5
668
330
666
100
AcDbEntity
  8
0
100
AcDbBlockBegin
  2
block 195
 70
     0
 71
     0
 10
0.0
 20
0.0
 30
0.0
  3
block 195
  1

  0
SPLINE
  5
66A
330
666
100
AcDbEntity
  8
0
 62
   250
420
  1842203
370
     9
100
AcDbSpline
210
0.0
220
0.0
230
1.0
 70
     8
 71
     3
 72
    11
 73
     7
 74
     0
 42
0.0000000001
 43
0.0000000001
 40
0.0
 40
0.0
 40
0.0
 40
0.0
 40
1.0
 40
1.0
 40
1.0
 40
2.0
 40
2.0
 40
2.0
 40
2.0
 10
202.8272021669002
 20
165.542287171584
 30
0.0
 10
202.8273744217881
 20
165.5474548182209
 30
0.0
 10
202.8234125593664
 20
165.5519334453063
 30
0.0
 10
202.8180726578416
 20
165.5519334453063
 30
0.0
 10
202.8129050112046
 20
165.552277955082
 30
0.0
 10
202.8082541292314
 20
165.5484883475483
 30
0.0
 10
202.8080818743435
 20
165.5429761911356
 30
0.0
  0
HATCH
  5
66B
330
666
100
AcDbEntity
  8
0
 62
   250
420
  1842203
100
AcDbHatch
 10
0.0
 20
0.0
 30
0.0
210
0.0
220
0.0
230
1.0
  2
SOLID
 70
     1
 71
     0
 91
        1
 92
        1
 93
        2
 72
     4
 94
        3
 73
     0
 74
     0
 95
       11
 96
        7
 40
0.0
 40
0.0
 40
0.0
 40
0.0
 40
0.3527780104152769
 40
0.3527780104152769
 40
0.3527780104152769
 40
0.7055560208305538
 40
0.7055560208305538
 40
0.7055560208305538
 40
0.7055560208305538
 10
202.8272021669002
 20
165.542287171584
 10
202.8273744217881
 20
165.5474548182209
 10
202.8234125593664
 20
165.5519334453063
 10
202.8180726578416
 20
165.5519334453063
 10
202.8129050112046
 20
165.552277955082
 10
202.8082541292314
 20
165.5484883475483
 10
202.8080818743435
 20
165.5429761911356
 72
     1
 10
202.8080818743435
 20
165.5429761911356
 11
202.8272021669002
 21
165.542287171584
 97
        0
 75
     2
 76
     1
 98
        0
  0
ENDBLK
  5
669
330
666
100
AcDbEntity
  8
0
100
AcDbBlockEnd
  0
BLOCK
  5
66E
330
66C
100
AcDbEntity
  8
0
100
AcDbBlockBegin
  2
block 196
 70
     0
 71
     0
 10
0.0
 20
0.0
 30
0.0
  3
block 196
  1

  0
POLYLINE
  5
670
330
66C
100
AcDbEntity
  8
0
 62
   250
420
  1842203
370
     9
100
AcDb2dPolyline
 66
     1
 10
0.0
 20
0.0
 30
0.0
  0
VERTEX
  5
671
330
670
100
AcDbEntity
  8
0
 62
   250
420
  1842203
370
     9
100
AcDbVertex
100
AcDb2dVertex
 10
196.9545162737907
 20
165.2184479823356
 30
0.0
  0
VERTEX
  5
672
330
670
100
AcDbEntity
  8
0
 62
   250
420
  1842203
370
     9
100
AcDbVertex
100
AcDb2dVertex
 10
195.2299003361551
 20
165.2184479823356
 30
0.0
  0
SEQEND
  5
673
330
670
100
AcDbEntity
  8
0
370
     9
  0
ENDBLK
  5
66F
330
66C
100
AcDbEntity
  8
0
100
AcDbBlockEnd
  0
BLOCK
  5
676
330
674
100
AcDbEntity
  8
0
100
AcDbBlockBegin
  2
block 197
 70
     0
 71
     0
 10
0.0
 20
0.0
 30
0.0
  3
block 197
  1

  0
POLYLINE
  5
678
330
674
100
AcDbEntity
  8
0
 62
   250
420
  1842203
370
     9
100
AcDb2dPolyline
 66
     1
 10
0.0
 20
0.0
 30
0.0
  0
VERTEX
  5
679
330
678
100
AcDbEntity
  8
0
 62
   250
420
  1842203
370
     9
100
AcDbVertex
100
AcDb2dVertex
 10
196.9545162737907
 20
164.7585274316477
 30
0.0
  0
VERTEX
  5
67A
330
678
100
AcDbEntity
  8
0
 62
   250
420
  1842203
370
     9
100
AcDbVertex
100
AcDb2dVertex
 10
195.2299003361551
 20
164.7585274316477
 30
0.0
  0
SEQEND
  5
67B
330
678
100
AcDbEntity
  8
0
370
     9
  0
ENDBLK
  5
677
330
674
100
AcDbEntity
  8
0
100
AcDbBlockEnd
  0
BLOCK
  5
67E
330
67C
100
AcDbEntity
  8
0
100
AcDbBlockBegin
  2
block 198
 70
     0
 71
     0
 10
0.0
 20
0.0
 30
0.0
  3
block 198
  1

  0
POLYLINE
  5
680
330
67C
100
AcDbEntity
  8
0
 62
   250
420
  1842203
370
     9
100
AcDb2dPolyline
 66
     1
 10
0.0
 20
0.0
 30
0.0
  0
VERTEX
  5
681
330
680
100
AcDbEntity
  8
0
 62
   250
420
  1842203
370
     9
100
AcDbVertex
100
AcDb2dVertex
 10
196.9545162737907
 20
137.6116738635733
 30
0.0
  0
VERTEX
  5
682
330
680
100
AcDbEntity
  8
0
 62
   250
420
  1842203
370
     9
100
AcDbVertex
100
AcDb2dVertex
 10
195.2299003361551
 20
137.6116738635733
 30
0.0
  0
SEQEND
  5
683
330
680
100
AcDbEntity
  8
0
370
     9
  0
ENDBLK
  5
67F
330
67C
100
AcDbEntity
  8
0
100
AcDbBlockEnd
  0
BLOCK
  5
686
330
684
100
AcDbEntity
  8
0
100
AcDbBlockBegin
  2
block 199
 70
     0
 71
     0
 10
0.0
 20
0.0
 30
0.0
  3
block 199
  1

  0
POLYLINE
  5
688
330
684
100
AcDbEntity
  8
0
 62
   250
420
  1842203
370
     9
100
AcDb2dPolyline
 66
     1
 10
0.0
 20
0.0
 30
0.0
  0
VERTEX
  5
689
330
688
100
AcDbEntity
  8
0
 62
   250
420
  1842203
370
     9
100
AcDbVertex
100
AcDb2dVertex
 10
196.9545162737907
 20
160.4509494499803
 30
0.0
  0
VERTEX
  5
68A
330
688
100
AcDbEntity
  8
0
 62
   250
420
  1842203
370
     9
100
AcDbVertex
100
AcDb2dVertex
 10
195.2299003361551
 20
160.4509494499803
 30
0.0
  0
SEQEND
  5
68B
330
688
100
AcDbEntity
  8
0
370
     9
  0
ENDBLK
  5
687
330
684
100
AcDbEntity
  8
0
100
AcDbBlockEnd
  0
BLOCK
  5
68E
330
68C
100
AcDbEntity
  8
0
100
AcDbBlockBegin
  2
block 200
 70
     0
 71
     0
 10
0.0
 20
0.0
 30
0.0
  3
block 200
  1

  0
POLYLINE
  5
690
330
68C
100
AcDbEntity
  8
0
 62
   250
420
  1842203
370
     9
100
AcDb2dPolyline
 66
     1
 10
0.0
 20
0.0
 30
0.0
  0
VERTEX
  5
691
330
690
100
AcDbEntity
  8
0
 62
   250
420
  1842203
370
     9
100
AcDbVertex
100
AcDb2dVertex
 10
198.6787877016506
 20
136.2660186793134
 30
0.0
  0
VERTEX
  5
692
330
690
100
AcDbEntity
  8
0
 62
   250
420
  1842203
370
     9
100
AcDbVertex
100
AcDb2dVertex
 10
198.6787877016506
 20
134.5414027416778
 30
0.0
  0
SEQEND
  5
693
330
690
100
AcDbEntity
  8
0
370
     9
  0
ENDBLK
  5
68F
330
68C
100
AcDbEntity
  8
0
100
AcDbBlockEnd
  0
BLOCK
  5
696
330
694
100
AcDbEntity
  8
0
100
AcDbBlockBegin
  2
block 201
 70
     0
 71
     0
 10
0.0
 20
0.0
 30
0.0
  3
block 201
  1

  0
POLYLINE
  5
698
330
694
100
AcDbEntity
  8
0
 62
   250
420
  1842203
370
     9
100
AcDb2dPolyline
 66
     1
 10
0.0
 20
0.0
 30
0.0
  0
VERTEX
  5
699
330
698
100
AcDbEntity
  8
0
 62
   250
420
  1842203
370
     9
100
AcDbVertex
100
AcDb2dVertex
 10
221.5187523076092
 20
136.2660186793134
 30
0.0
  0
VERTEX
  5
69A
330
698
100
AcDbEntity
  8
0
 62
   250
420
  1842203
370
     9
100
AcDbVertex
100
AcDb2dVertex
 10
221.5187523076092
 20
134.5414027416778
 30
0.0
  0
SEQEND
  5
69B
330
698
100
AcDbEntity
  8
0
370
     9
  0
ENDBLK
  5
697
330
694
100
AcDbEntity
  8
0
100
AcDbBlockEnd
  0
BLOCK
  5
69E
330
69C
100
AcDbEntity
  8
0
100
AcDbBlockBegin
  2
block 202
 70
     0
 71
     0
 10
0.0
 20
0.0
 30
0.0
  3
block 202
  1

  0
MTEXT
  5
6A0
330
69C
100
AcDbEntity
  8
0
 62
   250
420
  1842203
100
AcDbMText
 10
207.9659099826758
 20
134.7122795904727
 30
0.0
 40
1.43933428249433
 41
0.0
 71
     7
 72
     1
  1
\fHelvetica Light|b0|i0|c0|p34;\W1;596
 73
     1
 44
1.0
  0
ENDBLK
  5
69F
330
69C
100
AcDbEntity
  8
0
100
AcDbBlockEnd
  0
BLOCK
  5
6A3
330
6A1
100
AcDbEntity
  8
0
100
AcDbBlockBegin
  2
block 203
 70
     0
 71
     0
 10
0.0
 20
0.0
 30
0.0
  3
block 203
  1

  0
MTEXT
  5
6A5
330
6A1
100
AcDbEntity
  8
0
 62
   250
420
  1842203
100
AcDbMText
 10
197.0423662666188
 20
146.4104535374074
 30
0.0
 40
1.43933428249433
 41
0.0
 71
     7
 72
     1
  1
\fHelvetica Light|b0|i0|c0|p34;\W1;596
 11
-4.371139000186241E-8
 21
0.999999999999999
 31
0.0
 73
     1
 44
1.0
  0
ENDBLK
  5
6A4
330
6A1
100
AcDbEntity
  8
0
100
AcDbBlockEnd
  0
BLOCK
  5
6A8
330
6A6
100
AcDbEntity
  8
0
100
AcDbBlockBegin
  2
block 204
 70
     0
 71
     0
 10
0.0
 20
0.0
 30
0.0
  3
block 204
  1

  0
MTEXT
  5
6AA
330
6A6
100
AcDbEntity
  8
0
 62
   250
420
  1842203
100
AcDbMText
 10
194.6798904790965
 20
165.8649205766171
 30
0.0
 40
1.43933428249433
 41
0.0
 71
     7
 72
     1
  1
\fHelvetica Light|b0|i0|c0|p34;\W1;12
 73
     1
 44
1.0
  0
ENDBLK
  5
6A9
330
6A6
100
AcDbEntity
  8
0
100
AcDbBlockEnd
  0
ENDSEC
  0
SECTION
  2
ENTITIES
  0
INSERT
  5
3D
330
1F
100
AcDbEntity
  8
0
100
AcDbBlockReference
  2
block 2
 10
0.0
 20
0.0
 30
0.0
  0
INSERT
  5
45
330
1F
100
AcDbEntity
  8
0
100
AcDbBlockReference
  2
block 3
 10
0.0
 20
0.0
 30
0.0
  0
INSERT
  5
4D
330
1F
100
AcDbEntity
  8
0
100
AcDbBlockReference
  2
block 4
 10
0.0
 20
0.0
 30
0.0
  0
INSERT
  5
55
330
1F
100
AcDbEntity
  8
0
100
AcDbBlockReference
  2
block 5
 10
0.0
 20
0.0
 30
0.0
  0
INSERT
  5
5D
330
1F
100
AcDbEntity
  8
0
100
AcDbBlockReference
  2
block 6
 10
0.0
 20
0.0
 30
0.0
  0
INSERT
  5
65
330
1F
100
AcDbEntity
  8
0
100
AcDbBlockReference
  2
block 7
 10
0.0
 20
0.0
 30
0.0
  0
INSERT
  5
6D
330
1F
100
AcDbEntity
  8
0
100
AcDbBlockReference
  2
block 8
 10
0.0
 20
0.0
 30
0.0
  0
INSERT
  5
75
330
1F
100
AcDbEntity
  8
0
100
AcDbBlockReference
  2
block 9
 10
0.0
 20
0.0
 30
0.0
  0
INSERT
  5
7D
330
1F
100
AcDbEntity
  8
0
100
AcDbBlockReference
  2
block 10
 10
0.0
 20
0.0
 30
0.0
  0
INSERT
  5
85
330
1F
100
AcDbEntity
  8
0
100
AcDbBlockReference
  2
block 11
 10
0.0
 20
0.0
 30
0.0
  0
INSERT
  5
8D
330
1F
100
AcDbEntity
  8
0
100
AcDbBlockReference
  2
block 12
 10
0.0
 20
0.0
 30
0.0
  0
INSERT
  5
95
330
1F
100
AcDbEntity
  8
0
100
AcDbBlockReference
  2
block 13
 10
0.0
 20
0.0
 30
0.0
  0
INSERT
  5
9D
330
1F
100
AcDbEntity
  8
0
100
AcDbBlockReference
  2
block 14
 10
0.0
 20
0.0
 30
0.0
  0
INSERT
  5
A5
330
1F
100
AcDbEntity
  8
0
100
AcDbBlockReference
  2
block 15
 10
0.0
 20
0.0
 30
0.0
  0
INSERT
  5
BC
330
1F
100
AcDbEntity
  8
0
100
AcDbBlockReference
  2
block 16
 10
0.0
 20
0.0
 30
0.0
  0
INSERT
  5
C4
330
1F
100
AcDbEntity
  8
0
100
AcDbBlockReference
  2
block 17
 10
0.0
 20
0.0
 30
0.0
  0
INSERT
  5
CC
330
1F
100
AcDbEntity
  8
0
100
AcDbBlockReference
  2
block 18
 10
0.0
 20
0.0
 30
0.0
  0
INSERT
  5
D4
330
1F
100
AcDbEntity
  8
0
100
AcDbBlockReference
  2
block 19
 10
0.0
 20
0.0
 30
0.0
  0
INSERT
  5
DC
330
1F
100
AcDbEntity
  8
0
100
AcDbBlockReference
  2
block 20
 10
0.0
 20
0.0
 30
0.0
  0
INSERT
  5
E4
330
1F
100
AcDbEntity
  8
0
100
AcDbBlockReference
  2
block 21
 10
0.0
 20
0.0
 30
0.0
  0
INSERT
  5
EC
330
1F
100
AcDbEntity
  8
0
100
AcDbBlockReference
  2
block 22
 10
0.0
 20
0.0
 30
0.0
  0
INSERT
  5
F4
330
1F
100
AcDbEntity
  8
0
100
AcDbBlockReference
  2
block 23
 10
0.0
 20
0.0
 30
0.0
  0
INSERT
  5
FC
330
1F
100
AcDbEntity
  8
0
100
AcDbBlockReference
  2
block 24
 10
0.0
 20
0.0
 30
0.0
  0
INSERT
  5
104
330
1F
100
AcDbEntity
  8
0
100
AcDbBlockReference
  2
block 25
 10
0.0
 20
0.0
 30
0.0
  0
INSERT
  5
10C
330
1F
100
AcDbEntity
  8
0
100
AcDbBlockReference
  2
block 26
 10
0.0
 20
0.0
 30
0.0
  0
INSERT
  5
114
330
1F
100
AcDbEntity
  8
0
100
AcDbBlockReference
  2
block 27
 10
0.0
 20
0.0
 30
0.0
  0
INSERT
  5
11C
330
1F
100
AcDbEntity
  8
0
100
AcDbBlockReference
  2
block 28
 10
0.0
 20
0.0
 30
0.0
  0
INSERT
  5
124
330
1F
100
AcDbEntity
  8
0
100
AcDbBlockReference
  2
block 29
 10
0.0
 20
0.0
 30
0.0
  0
INSERT
  5
12C
330
1F
100
AcDbEntity
  8
0
100
AcDbBlockReference
  2
block 30
 10
0.0
 20
0.0
 30
0.0
  0
INSERT
  5
134
330
1F
100
AcDbEntity
  8
0
100
AcDbBlockReference
  2
block 31
 10
0.0
 20
0.0
 30
0.0
  0
INSERT
  5
13C
330
1F
100
AcDbEntity
  8
0
100
AcDbBlockReference
  2
block 32
 10
0.0
 20
0.0
 30
0.0
  0
INSERT
  5
144
330
1F
100
AcDbEntity
  8
0
100
AcDbBlockReference
  2
block 33
 10
0.0
 20
0.0
 30
0.0
  0
INSERT
  5
14C
330
1F
100
AcDbEntity
  8
0
100
AcDbBlockReference
  2
block 34
 10
0.0
 20
0.0
 30
0.0
  0
INSERT
  5
154
330
1F
100
AcDbEntity
  8
0
100
AcDbBlockReference
  2
block 35
 10
0.0
 20
0.0
 30
0.0
  0
INSERT
  5
15C
330
1F
100
AcDbEntity
  8
0
100
AcDbBlockReference
  2
block 36
 10
0.0
 20
0.0
 30
0.0
  0
INSERT
  5
164
330
1F
100
AcDbEntity
  8
0
100
AcDbBlockReference
  2
block 37
 10
0.0
 20
0.0
 30
0.0
  0
INSERT
  5
16C
330
1F
100
AcDbEntity
  8
0
100
AcDbBlockReference
  2
block 38
 10
0.0
 20
0.0
 30
0.0
  0
INSERT
  5
174
330
1F
100
AcDbEntity
  8
0
100
AcDbBlockReference
  2
block 39
 10
0.0
 20
0.0
 30
0.0
  0
INSERT
  5
17C
330
1F
100
AcDbEntity
  8
0
100
AcDbBlockReference
  2
block 40
 10
0.0
 20
0.0
 30
0.0
  0
INSERT
  5
184
330
1F
100
AcDbEntity
  8
0
100
AcDbBlockReference
  2
block 41
 10
0.0
 20
0.0
 30
0.0
  0
INSERT
  5
18C
330
1F
100
AcDbEntity
  8
0
100
AcDbBlockReference
  2
block 42
 10
0.0
 20
0.0
 30
0.0
  0
INSERT
  5
194
330
1F
100
AcDbEntity
  8
0
100
AcDbBlockReference
  2
block 43
 10
0.0
 20
0.0
 30
0.0
  0
INSERT
  5
19C
330
1F
100
AcDbEntity
  8
0
100
AcDbBlockReference
  2
block 44
 10
0.0
 20
0.0
 30
0.0
  0
INSERT
  5
1A4
330
1F
100
AcDbEntity
  8
0
100
AcDbBlockReference
  2
block 45
 10
0.0
 20
0.0
 30
0.0
  0
INSERT
  5
1AC
330
1F
100
AcDbEntity
  8
0
100
AcDbBlockReference
  2
block 46
 10
0.0
 20
0.0
 30
0.0
  0
INSERT
  5
1B4
330
1F
100
AcDbEntity
  8
0
100
AcDbBlockReference
  2
block 47
 10
0.0
 20
0.0
 30
0.0
  0
INSERT
  5
1BC
330
1F
100
AcDbEntity
  8
0
100
AcDbBlockReference
  2
block 48
 10
0.0
 20
0.0
 30
0.0
  0
INSERT
  5
1C4
330
1F
100
AcDbEntity
  8
0
100
AcDbBlockReference
  2
block 49
 10
0.0
 20
0.0
 30
0.0
  0
INSERT
  5
1CC
330
1F
100
AcDbEntity
  8
0
100
AcDbBlockReference
  2
block 50
 10
0.0
 20
0.0
 30
0.0
  0
INSERT
  5
1D4
330
1F
100
AcDbEntity
  8
0
100
AcDbBlockReference
  2
block 51
 10
0.0
 20
0.0
 30
0.0
  0
INSERT
  5
1DC
330
1F
100
AcDbEntity
  8
0
100
AcDbBlockReference
  2
block 52
 10
0.0
 20
0.0
 30
0.0
  0
INSERT
  5
1E4
330
1F
100
AcDbEntity
  8
0
100
AcDbBlockReference
  2
block 53
 10
0.0
 20
0.0
 30
0.0
  0
INSERT
  5
1EC
330
1F
100
AcDbEntity
  8
0
100
AcDbBlockReference
  2
block 54
 10
0.0
 20
0.0
 30
0.0
  0
INSERT
  5
1F4
330
1F
100
AcDbEntity
  8
0
100
AcDbBlockReference
  2
block 55
 10
0.0
 20
0.0
 30
0.0
  0
INSERT
  5
1FC
330
1F
100
AcDbEntity
  8
0
100
AcDbBlockReference
  2
block 56
 10
0.0
 20
0.0
 30
0.0
  0
INSERT
  5
204
330
1F
100
AcDbEntity
  8
0
100
AcDbBlockReference
  2
block 57
 10
0.0
 20
0.0
 30
0.0
  0
INSERT
  5
20C
330
1F
100
AcDbEntity
  8
0
100
AcDbBlockReference
  2
block 58
 10
0.0
 20
0.0
 30
0.0
  0
INSERT
  5
214
330
1F
100
AcDbEntity
  8
0
100
AcDbBlockReference
  2
block 59
 10
0.0
 20
0.0
 30
0.0
  0
INSERT
  5
21C
330
1F
100
AcDbEntity
  8
0
100
AcDbBlockReference
  2
block 60
 10
0.0
 20
0.0
 30
0.0
  0
INSERT
  5
224
330
1F
100
AcDbEntity
  8
0
100
AcDbBlockReference
  2
block 61
 10
0.0
 20
0.0
 30
0.0
  0
INSERT
  5
22C
330
1F
100
AcDbEntity
  8
0
100
AcDbBlockReference
  2
block 62
 10
0.0
 20
0.0
 30
0.0
  0
INSERT
  5
234
330
1F
100
AcDbEntity
  8
0
100
AcDbBlockReference
  2
block 63
 10
0.0
 20
0.0
 30
0.0
  0
INSERT
  5
23C
330
1F
100
AcDbEntity
  8
0
100
AcDbBlockReference
  2
block 64
 10
0.0
 20
0.0
 30
0.0
  0
INSERT
  5
244
330
1F
100
AcDbEntity
  8
0
100
AcDbBlockReference
  2
block 65
 10
0.0
 20
0.0
 30
0.0
  0
INSERT
  5
24C
330
1F
100
AcDbEntity
  8
0
100
AcDbBlockReference
  2
block 66
 10
0.0
 20
0.0
 30
0.0
  0
INSERT
  5
254
330
1F
100
AcDbEntity
  8
0
100
AcDbBlockReference
  2
block 67
 10
0.0
 20
0.0
 30
0.0
  0
INSERT
  5
25C
330
1F
100
AcDbEntity
  8
0
100
AcDbBlockReference
  2
block 68
 10
0.0
 20
0.0
 30
0.0
  0
INSERT
  5
264
330
1F
100
AcDbEntity
  8
0
100
AcDbBlockReference
  2
block 69
 10
0.0
 20
0.0
 30
0.0
  0
INSERT
  5
26C
330
1F
100
AcDbEntity
  8
0
100
AcDbBlockReference
  2
block 70
 10
0.0
 20
0.0
 30
0.0
  0
INSERT
  5
274
330
1F
100
AcDbEntity
  8
0
100
AcDbBlockReference
  2
block 71
 10
0.0
 20
0.0
 30
0.0
  0
INSERT
  5
27C
330
1F
100
AcDbEntity
  8
0
100
AcDbBlockReference
  2
block 72
 10
0.0
 20
0.0
 30
0.0
  0
INSERT
  5
284
330
1F
100
AcDbEntity
  8
0
100
AcDbBlockReference
  2
block 73
 10
0.0
 20
0.0
 30
0.0
  0
INSERT
  5
28C
330
1F
100
AcDbEntity
  8
0
100
AcDbBlockReference
  2
block 74
 10
0.0
 20
0.0
 30
0.0
  0
INSERT
  5
294
330
1F
100
AcDbEntity
  8
0
100
AcDbBlockReference
  2
block 75
 10
0.0
 20
0.0
 30
0.0
  0
INSERT
  5
29C
330
1F
100
AcDbEntity
  8
0
100
AcDbBlockReference
  2
block 76
 10
0.0
 20
0.0
 30
0.0
  0
INSERT
  5
2A4
330
1F
100
AcDbEntity
  8
0
100
AcDbBlockReference
  2
block 77
 10
0.0
 20
0.0
 30
0.0
  0
INSERT
  5
2AC
330
1F
100
AcDbEntity
  8
0
100
AcDbBlockReference
  2
block 78
 10
0.0
 20
0.0
 30
0.0
  0
INSERT
  5
2B4
330
1F
100
AcDbEntity
  8
0
100
AcDbBlockReference
  2
block 79
 10
0.0
 20
0.0
 30
0.0
  0
INSERT
  5
2BC
330
1F
100
AcDbEntity
  8
0
100
AcDbBlockReference
  2
block 80
 10
0.0
 20
0.0
 30
0.0
  0
INSERT
  5
2C4
330
1F
100
AcDbEntity
  8
0
100
AcDbBlockReference
  2
block 81
 10
0.0
 20
0.0
 30
0.0
  0
INSERT
  5
2CC
330
1F
100
AcDbEntity
  8
0
100
AcDbBlockReference
  2
block 82
 10
0.0
 20
0.0
 30
0.0
  0
INSERT
  5
2D4
330
1F
100
AcDbEntity
  8
0
100
AcDbBlockReference
  2
block 83
 10
0.0
 20
0.0
 30
0.0
  0
INSERT
  5
2DF
330
1F
100
AcDbEntity
  8
0
100
AcDbBlockReference
  2
block 84
 10
0.0
 20
0.0
 30
0.0
  0
INSERT
  5
2E7
330
1F
100
AcDbEntity
  8
0
100
AcDbBlockReference
  2
block 85
 10
0.0
 20
0.0
 30
0.0
  0
INSERT
  5
2F9
330
1F
100
AcDbEntity
  8
0
100
AcDbBlockReference
  2
block 86
 10
0.0
 20
0.0
 30
0.0
  0
INSERT
  5
301
330
1F
100
AcDbEntity
  8
0
100
AcDbBlockReference
  2
block 87
 10
0.0
 20
0.0
 30
0.0
  0
INSERT
  5
309
330
1F
100
AcDbEntity
  8
0
100
AcDbBlockReference
  2
block 88
 10
0.0
 20
0.0
 30
0.0
  0
INSERT
  5
311
330
1F
100
AcDbEntity
  8
0
100
AcDbBlockReference
  2
block 89
 10
0.0
 20
0.0
 30
0.0
  0
INSERT
  5
322
330
1F
100
AcDbEntity
  8
0
100
AcDbBlockReference
  2
block 90
 10
0.0
 20
0.0
 30
0.0
  0
INSERT
  5
333
330
1F
100
AcDbEntity
  8
0
100
AcDbBlockReference
  2
block 91
 10
0.0
 20
0.0
 30
0.0
  0
INSERT
  5
344
330
1F
100
AcDbEntity
  8
0
100
AcDbBlockReference
  2
block 92
 10
0.0
 20
0.0
 30
0.0
  0
INSERT
  5
34C
330
1F
100
AcDbEntity
  8
0
100
AcDbBlockReference
  2
block 93
 10
0.0
 20
0.0
 30
0.0
  0
INSERT
  5
354
330
1F
100
AcDbEntity
  8
0
100
AcDbBlockReference
  2
block 94
 10
0.0
 20
0.0
 30
0.0
  0
INSERT
  5
35C
330
1F
100
AcDbEntity
  8
0
100
AcDbBlockReference
  2
block 95
 10
0.0
 20
0.0
 30
0.0
  0
INSERT
  5
364
330
1F
100
AcDbEntity
  8
0
100
AcDbBlockReference
  2
block 96
 10
0.0
 20
0.0
 30
0.0
  0
INSERT
  5
36C
330
1F
100
AcDbEntity
  8
0
100
AcDbBlockReference
  2
block 97
 10
0.0
 20
0.0
 30
0.0
  0
INSERT
  5
374
330
1F
100
AcDbEntity
  8
0
100
AcDbBlockReference
  2
block 98
 10
0.0
 20
0.0
 30
0.0
  0
INSERT
  5
37C
330
1F
100
AcDbEntity
  8
0
100
AcDbBlockReference
  2
block 99
 10
0.0
 20
0.0
 30
0.0
  0
INSERT
  5
384
330
1F
100
AcDbEntity
  8
0
100
AcDbBlockReference
  2
block 100
 10
0.0
 20
0.0
 30
0.0
  0
INSERT
  5
38C
330
1F
100
AcDbEntity
  8
0
100
AcDbBlockReference
  2
block 101
 10
0.0
 20
0.0
 30
0.0
  0
INSERT
  5
394
330
1F
100
AcDbEntity
  8
0
100
AcDbBlockReference
  2
block 102
 10
0.0
 20
0.0
 30
0.0
  0
INSERT
  5
39C
330
1F
100
AcDbEntity
  8
0
100
AcDbBlockReference
  2
block 103
 10
0.0
 20
0.0
 30
0.0
  0
INSERT
  5
3A4
330
1F
100
AcDbEntity
  8
0
100
AcDbBlockReference
  2
block 104
 10
0.0
 20
0.0
 30
0.0
  0
INSERT
  5
3AC
330
1F
100
AcDbEntity
  8
0
100
AcDbBlockReference
  2
block 105
 10
0.0
 20
0.0
 30
0.0
  0
INSERT
  5
3B4
330
1F
100
AcDbEntity
  8
0
100
AcDbBlockReference
  2
block 106
 10
0.0
 20
0.0
 30
0.0
  0
INSERT
  5
3BC
330
1F
100
AcDbEntity
  8
0
100
AcDbBlockReference
  2
block 107
 10
0.0
 20
0.0
 30
0.0
  0
INSERT
  5
3C4
330
1F
100
AcDbEntity
  8
0
100
AcDbBlockReference
  2
block 108
 10
0.0
 20
0.0
 30
0.0
  0
INSERT
  5
3CC
330
1F
100
AcDbEntity
  8
0
100
AcDbBlockReference
  2
block 109
 10
0.0
 20
0.0
 30
0.0
  0
INSERT
  5
3D4
330
1F
100
AcDbEntity
  8
0
100
AcDbBlockReference
  2
block 110
 10
0.0
 20
0.0
 30
0.0
  0
INSERT
  5
3DC
330
1F
100
AcDbEntity
  8
0
100
AcDbBlockReference
  2
block 111
 10
0.0
 20
0.0
 30
0.0
  0
INSERT
  5
3E4
330
1F
100
AcDbEntity
  8
0
100
AcDbBlockReference
  2
block 112
 10
0.0
 20
0.0
 30
0.0
  0
INSERT
  5
3EC
330
1F
100
AcDbEntity
  8
0
100
AcDbBlockReference
  2
block 113
 10
0.0
 20
0.0
 30
0.0
  0
INSERT
  5
3F4
330
1F
100
AcDbEntity
  8
0
100
AcDbBlockReference
  2
block 114
 10
0.0
 20
0.0
 30
0.0
  0
INSERT
  5
3FC
330
1F
100
AcDbEntity
  8
0
100
AcDbBlockReference
  2
block 115
 10
0.0
 20
0.0
 30
0.0
  0
INSERT
  5
404
330
1F
100
AcDbEntity
  8
0
100
AcDbBlockReference
  2
block 116
 10
0.0
 20
0.0
 30
0.0
  0
INSERT
  5
40C
330
1F
100
AcDbEntity
  8
0
100
AcDbBlockReference
  2
block 117
 10
0.0
 20
0.0
 30
0.0
  0
INSERT
  5
414
330
1F
100
AcDbEntity
  8
0
100
AcDbBlockReference
  2
block 118
 10
0.0
 20
0.0
 30
0.0
  0
INSERT
  5
41C
330
1F
100
AcDbEntity
  8
0
100
AcDbBlockReference
  2
block 119
 10
0.0
 20
0.0
 30
0.0
  0
INSERT
  5
424
330
1F
100
AcDbEntity
  8
0
100
AcDbBlockReference
  2
block 120
 10
0.0
 20
0.0
 30
0.0
  0
INSERT
  5
42C
330
1F
100
AcDbEntity
  8
0
100
AcDbBlockReference
  2
block 121
 10
0.0
 20
0.0
 30
0.0
  0
INSERT
  5
434
330
1F
100
AcDbEntity
  8
0
100
AcDbBlockReference
  2
block 122
 10
0.0
 20
0.0
 30
0.0
  0
INSERT
  5
43C
330
1F
100
AcDbEntity
  8
0
100
AcDbBlockReference
  2
block 123
 10
0.0
 20
0.0
 30
0.0
  0
INSERT
  5
444
330
1F
100
AcDbEntity
  8
0
100
AcDbBlockReference
  2
block 124
 10
0.0
 20
0.0
 30
0.0
  0
INSERT
  5
44C
330
1F
100
AcDbEntity
  8
0
100
AcDbBlockReference
  2
block 125
 10
0.0
 20
0.0
 30
0.0
  0
INSERT
  5
454
330
1F
100
AcDbEntity
  8
0
100
AcDbBlockReference
  2
block 126
 10
0.0
 20
0.0
 30
0.0
  0
INSERT
  5
45C
330
1F
100
AcDbEntity
  8
0
100
AcDbBlockReference
  2
block 127
 10
0.0
 20
0.0
 30
0.0
  0
INSERT
  5
464
330
1F
100
AcDbEntity
  8
0
100
AcDbBlockReference
  2
block 128
 10
0.0
 20
0.0
 30
0.0
  0
INSERT
  5
46C
330
1F
100
AcDbEntity
  8
0
100
AcDbBlockReference
  2
block 129
 10
0.0
 20
0.0
 30
0.0
  0
INSERT
  5
474
330
1F
100
AcDbEntity
  8
0
100
AcDbBlockReference
  2
block 130
 10
0.0
 20
0.0
 30
0.0
  0
INSERT
  5
47C
330
1F
100
AcDbEntity
  8
0
100
AcDbBlockReference
  2
block 131
 10
0.0
 20
0.0
 30
0.0
  0
INSERT
  5
484
330
1F
100
AcDbEntity
  8
0
100
AcDbBlockReference
  2
block 132
 10
0.0
 20
0.0
 30
0.0
  0
INSERT
  5
48C
330
1F
100
AcDbEntity
  8
0
100
AcDbBlockReference
  2
block 133
 10
0.0
 20
0.0
 30
0.0
  0
INSERT
  5
494
330
1F
100
AcDbEntity
  8
0
100
AcDbBlockReference
  2
block 134
 10
0.0
 20
0.0
 30
0.0
  0
INSERT
  5
49C
330
1F
100
AcDbEntity
  8
0
100
AcDbBlockReference
  2
block 135
 10
0.0
 20
0.0
 30
0.0
  0
INSERT
  5
4A4
330
1F
100
AcDbEntity
  8
0
100
AcDbBlockReference
  2
block 136
 10
0.0
 20
0.0
 30
0.0
  0
INSERT
  5
4AC
330
1F
100
AcDbEntity
  8
0
100
AcDbBlockReference
  2
block 137
 10
0.0
 20
0.0
 30
0.0
  0
INSERT
  5
4B4
330
1F
100
AcDbEntity
  8
0
100
AcDbBlockReference
  2
block 138
 10
0.0
 20
0.0
 30
0.0
  0
INSERT
  5
4BC
330
1F
100
AcDbEntity
  8
0
100
AcDbBlockReference
  2
block 139
 10
0.0
 20
0.0
 30
0.0
  0
INSERT
  5
4C4
330
1F
100
AcDbEntity
  8
0
100
AcDbBlockReference
  2
block 140
 10
0.0
 20
0.0
 30
0.0
  0
INSERT
  5
4CC
330
1F
100
AcDbEntity
  8
0
100
AcDbBlockReference
  2
block 141
 10
0.0
 20
0.0
 30
0.0
  0
INSERT
  5
4D4
330
1F
100
AcDbEntity
  8
0
100
AcDbBlockReference
  2
block 142
 10
0.0
 20
0.0
 30
0.0
  0
INSERT
  5
4DC
330
1F
100
AcDbEntity
  8
0
100
AcDbBlockReference
  2
block 143
 10
0.0
 20
0.0
 30
0.0
  0
INSERT
  5
4E4
330
1F
100
AcDbEntity
  8
0
100
AcDbBlockReference
  2
block 144
 10
0.0
 20
0.0
 30
0.0
  0
INSERT
  5
4EC
330
1F
100
AcDbEntity
  8
0
100
AcDbBlockReference
  2
block 145
 10
0.0
 20
0.0
 30
0.0
  0
INSERT
  5
4F4
330
1F
100
AcDbEntity
  8
0
100
AcDbBlockReference
  2
block 146
 10
0.0
 20
0.0
 30
0.0
  0
INSERT
  5
4FC
330
1F
100
AcDbEntity
  8
0
100
AcDbBlockReference
  2
block 147
 10
0.0
 20
0.0
 30
0.0
  0
INSERT
  5
504
330
1F
100
AcDbEntity
  8
0
100
AcDbBlockReference
  2
block 148
 10
0.0
 20
0.0
 30
0.0
  0
INSERT
  5
50C
330
1F
100
AcDbEntity
  8
0
100
AcDbBlockReference
  2
block 149
 10
0.0
 20
0.0
 30
0.0
  0
INSERT
  5
523
330
1F
100
AcDbEntity
  8
0
100
AcDbBlockReference
  2
block 150
 10
0.0
 20
0.0
 30
0.0
  0
INSERT
  5
52B
330
1F
100
AcDbEntity
  8
0
100
AcDbBlockReference
  2
block 151
 10
0.0
 20
0.0
 30
0.0
  0
INSERT
  5
533
330
1F
100
AcDbEntity
  8
0
100
AcDbBlockReference
  2
block 152
 10
0.0
 20
0.0
 30
0.0
  0
INSERT
  5
53B
330
1F
100
AcDbEntity
  8
0
100
AcDbBlockReference
  2
block 153
 10
0.0
 20
0.0
 30
0.0
  0
INSERT
  5
543
330
1F
100
AcDbEntity
  8
0
100
AcDbBlockReference
  2
block 154
 10
0.0
 20
0.0
 30
0.0
  0
INSERT
  5
54B
330
1F
100
AcDbEntity
  8
0
100
AcDbBlockReference
  2
block 155
 10
0.0
 20
0.0
 30
0.0
  0
INSERT
  5
55D
330
1F
100
AcDbEntity
  8
0
100
AcDbBlockReference
  2
block 156
 10
0.0
 20
0.0
 30
0.0
  0
INSERT
  5
565
330
1F
100
AcDbEntity
  8
0
100
AcDbBlockReference
  2
block 157
 10
0.0
 20
0.0
 30
0.0
  0
INSERT
  5
56D
330
1F
100
AcDbEntity
  8
0
100
AcDbBlockReference
  2
block 158
 10
0.0
 20
0.0
 30
0.0
  0
INSERT
  5
575
330
1F
100
AcDbEntity
  8
0
100
AcDbBlockReference
  2
block 159
 10
0.0
 20
0.0
 30
0.0
  0
INSERT
  5
57D
330
1F
100
AcDbEntity
  8
0
100
AcDbBlockReference
  2
block 160
 10
0.0
 20
0.0
 30
0.0
  0
INSERT
  5
585
330
1F
100
AcDbEntity
  8
0
100
AcDbBlockReference
  2
block 161
 10
0.0
 20
0.0
 30
0.0
  0
INSERT
  5
58D
330
1F
100
AcDbEntity
  8
0
100
AcDbBlockReference
  2
block 162
 10
0.0
 20
0.0
 30
0.0
  0
INSERT
  5
595
330
1F
100
AcDbEntity
  8
0
100
AcDbBlockReference
  2
block 163
 10
0.0
 20
0.0
 30
0.0
  0
INSERT
  5
59D
330
1F
100
AcDbEntity
  8
0
100
AcDbBlockReference
  2
block 164
 10
0.0
 20
0.0
 30
0.0
  0
INSERT
  5
5A5
330
1F
100
AcDbEntity
  8
0
100
AcDbBlockReference
  2
block 165
 10
0.0
 20
0.0
 30
0.0
  0
INSERT
  5
5AD
330
1F
100
AcDbEntity
  8
0
100
AcDbBlockReference
  2
block 166
 10
0.0
 20
0.0
 30
0.0
  0
INSERT
  5
5B5
330
1F
100
AcDbEntity
  8
0
100
AcDbBlockReference
  2
block 167
 10
0.0
 20
0.0
 30
0.0
  0
INSERT
  5
5BD
330
1F
100
AcDbEntity
  8
0
100
AcDbBlockReference
  2
block 168
 10
0.0
 20
0.0
 30
0.0
  0
INSERT
  5
5C5
330
1F
100
AcDbEntity
  8
0
100
AcDbBlockReference
  2
block 169
 10
0.0
 20
0.0
 30
0.0
  0
INSERT
  5
5CD
330
1F
100
AcDbEntity
  8
0
100
AcDbBlockReference
  2
block 170
 10
0.0
 20
0.0
 30
0.0
  0
INSERT
  5
5D5
330
1F
100
AcDbEntity
  8
0
100
AcDbBlockReference
  2
block 171
 10
0.0
 20
0.0
 30
0.0
  0
INSERT
  5
5DD
330
1F
100
AcDbEntity
  8
0
100
AcDbBlockReference
  2
block 172
 10
0.0
 20
0.0
 30
0.0
  0
INSERT
  5
5E3
330
1F
100
AcDbEntity
  8
0
100
AcDbBlockReference
  2
block 173
 10
0.0
 20
0.0
 30
0.0
  0
INSERT
  5
5E9
330
1F
100
AcDbEntity
  8
0
100
AcDbBlockReference
  2
block 174
 10
0.0
 20
0.0
 30
0.0
  0
INSERT
  5
5EF
330
1F
100
AcDbEntity
  8
0
100
AcDbBlockReference
  2
block 175
 10
0.0
 20
0.0
 30
0.0
  0
INSERT
  5
5F5
330
1F
100
AcDbEntity
  8
0
100
AcDbBlockReference
  2
block 176
 10
0.0
 20
0.0
 30
0.0
  0
INSERT
  5
5FB
330
1F
100
AcDbEntity
  8
0
100
AcDbBlockReference
  2
block 177
 10
0.0
 20
0.0
 30
0.0
  0
INSERT
  5
601
330
1F
100
AcDbEntity
  8
0
100
AcDbBlockReference
  2
block 178
 10
0.0
 20
0.0
 30
0.0
  0
INSERT
  5
607
330
1F
100
AcDbEntity
  8
0
100
AcDbBlockReference
  2
block 179
 10
0.0
 20
0.0
 30
0.0
  0
INSERT
  5
60D
330
1F
100
AcDbEntity
  8
0
100
AcDbBlockReference
  2
block 180
 10
0.0
 20
0.0
 30
0.0
  0
INSERT
  5
613
330
1F
100
AcDbEntity
  8
0
100
AcDbBlockReference
  2
block 181
 10
0.0
 20
0.0
 30
0.0
  0
INSERT
  5
619
330
1F
100
AcDbEntity
  8
0
100
AcDbBlockReference
  2
block 182
 10
0.0
 20
0.0
 30
0.0
  0
INSERT
  5
61F
330
1F
100
AcDbEntity
  8
0
100
AcDbBlockReference
  2
block 183
 10
0.0
 20
0.0
 30
0.0
  0
INSERT
  5
625
330
1F
100
AcDbEntity
  8
0
100
AcDbBlockReference
  2
block 184
 10
0.0
 20
0.0
 30
0.0
  0
INSERT
  5
62B
330
1F
100
AcDbEntity
  8
0
100
AcDbBlockReference
  2
block 185
 10
0.0
 20
0.0
 30
0.0
  0
INSERT
  5
631
330
1F
100
AcDbEntity
  8
0
100
AcDbBlockReference
  2
block 186
 10
0.0
 20
0.0
 30
0.0
  0
INSERT
  5
637
330
1F
100
AcDbEntity
  8
0
100
AcDbBlockReference
  2
block 187
 10
0.0
 20
0.0
 30
0.0
  0
INSERT
  5
63D
330
1F
100
AcDbEntity
  8
0
100
AcDbBlockReference
  2
block 188
 10
0.0
 20
0.0
 30
0.0
  0
INSERT
  5
643
330
1F
100
AcDbEntity
  8
0
100
AcDbBlockReference
  2
block 189
 10
0.0
 20
0.0
 30
0.0
  0
INSERT
  5
649
330
1F
100
AcDbEntity
  8
0
100
AcDbBlockReference
  2
block 190
 10
0.0
 20
0.0
 30
0.0
  0
INSERT
  5
64F
330
1F
100
AcDbEntity
  8
0
100
AcDbBlockReference
  2
block 191
 10
0.0
 20
0.0
 30
0.0
  0
INSERT
  5
655
330
1F
100
AcDbEntity
  8
0
100
AcDbBlockReference
  2
block 192
 10
0.0
 20
0.0
 30
0.0
  0
INSERT
  5
65B
330
1F
100
AcDbEntity
  8
0
100
AcDbBlockReference
  2
block 193
 10
0.0
 20
0.0
 30
0.0
  0
INSERT
  5
661
330
1F
100
AcDbEntity
  8
0
100
AcDbBlockReference
  2
block 194
 10
0.0
 20
0.0
 30
0.0
  0
INSERT
  5
667
330
1F
100
AcDbEntity
  8
0
100
AcDbBlockReference
  2
block 195
 10
0.0
 20
0.0
 30
0.0
  0
INSERT
  5
66D
330
1F
100
AcDbEntity
  8
0
100
AcDbBlockReference
  2
block 196
 10
0.0
 20
0.0
 30
0.0
  0
INSERT
  5
675
330
1F
100
AcDbEntity
  8
0
100
AcDbBlockReference
  2
block 197
 10
0.0
 20
0.0
 30
0.0
  0
INSERT
  5
67D
330
1F
100
AcDbEntity
  8
0
100
AcDbBlockReference
  2
block 198
 10
0.0
 20
0.0
 30
0.0
  0
INSERT
  5
685
330
1F
100
AcDbEntity
  8
0
100
AcDbBlockReference
  2
block 199
 10
0.0
 20
0.0
 30
0.0
  0
INSERT
  5
68D
330
1F
100
AcDbEntity
  8
0
100
AcDbBlockReference
  2
block 200
 10
0.0
 20
0.0
 30
0.0
  0
INSERT
  5
695
330
1F
100
AcDbEntity
  8
0
100
AcDbBlockReference
  2
block 201
 10
0.0
 20
0.0
 30
0.0
  0
INSERT
  5
69D
330
1F
100
AcDbEntity
  8
0
100
AcDbBlockReference
  2
block 202
 10
0.0
 20
0.0
 30
0.0
  0
INSERT
  5
6A2
330
1F
100
AcDbEntity
  8
0
100
AcDbBlockReference
  2
block 203
 10
0.0
 20
0.0
 30
0.0
  0
INSERT
  5
6A7
330
1F
100
AcDbEntity
  8
0
100
AcDbBlockReference
  2
block 204
 10
0.0
 20
0.0
 30
0.0
  0
ENDSEC
  0
SECTION
  2
OBJECTS
  0
DICTIONARY
  5
C
330
0
100
AcDbDictionary
281
     1
  3
ACAD_GROUP
350
D
  3
ACAD_LAYOUT
350
1A
  3
ACAD_MLINESTYLE
350
17
  3
ACAD_PLOTSETTINGS
350
19
  3
ACAD_PLOTSTYLENAME
350
E
  3
ACAD_TABLESTYLE
350
6AB
  3
ACAD_VISUALSTYLE
350
2A
  0
DICTIONARY
  5
D
102
{ACAD_REACTORS
330
C
102
}
330
C
100
AcDbDictionary
281
     1
  0
DICTIONARY
  5
1A
102
{ACAD_REACTORS
330
C
102
}
330
C
100
AcDbDictionary
281
     1
  3
Layout1
350
1E
  3
Layout2
350
26
  3
Model
350
22
  0
DICTIONARY
  5
17
102
{ACAD_REACTORS
330
C
102
}
330
C
100
AcDbDictionary
281
     1
  3
Standard
350
18
  0
DICTIONARY
  5
19
102
{ACAD_REACTORS
330
C
102
}
330
C
100
AcDbDictionary
281
     1
  0
ACDBDICTIONARYWDFLT
  5
E
102
{ACAD_REACTORS
330
C
102
}
330
C
100
AcDbDictionary
281
     1
  3
Normal
350
F
100
AcDbDictionaryWithDefault
340
F
  0
DICTIONARY
  5
6AB
102
{ACAD_REACTORS
330
C
102
}
330
C
100
AcDbDictionary
281
     1
  0
DICTIONARY
  5
2A
102
{ACAD_REACTORS
330
C
102
}
330
C
100
AcDbDictionary
281
     1
  3
2dWireframe
350
2F
  3
3D Hidden
350
31
  3
3dWireframe
350
30
  3
Basic
350
32
  3
Brighten
350
36
  3
ColorChange
350
3A
  3
Conceptual
350
34
  3
Dim
350
35
  3
Facepattern
350
39
  3
Flat
350
2B
  3
FlatWithEdges
350
2C
  3
Gouraud
350
2D
  3
GouraudWithEdges
350
2E
  3
Linepattern
350
38
  3
Realistic
350
33
  3
Thicken
350
37
  0
LAYOUT
  5
1E
102
{ACAD_REACTORS
330
1A
102
}
330
1A
100
AcDbPlotSettings
  1

  2
none_device
  4

  6

 40
0.0
 41
0.0
 42
0.0
 43
0.0
 44
0.0
 45
0.0
 46
0.0
 47
0.0
 48
0.0
 49
0.0
140
0.0
141
0.0
142
1.0
143
1.0
 70
   688
 72
     0
 73
     0
 74
     5
  7

 75
    16
 76
     0
 77
     2
 78
   300
147
1.0
148
0.0
149
0.0
100
AcDbLayout
  1
Layout1
 70
     1
 71
     1
 10
0.0
 20
0.0
 11
12.0
 21
9.0
 12
0.0
 22
0.0
 32
0.0
 14
1.000000000000000E+20
 24
1.000000000000000E+20
 34
1.000000000000000E+20
 15
-1.000000000000000E+20
 25
-1.000000000000000E+20
 35
-1.000000000000000E+20
146
0.0
 13
0.0
 23
0.0
 33
0.0
 16
1.0
 26
0.0
 36
0.0
 17
0.0
 27
1.0
 37
0.0
 76
     0
330
1B
  0
LAYOUT
  5
26
102
{ACAD_REACTORS
330
1A
102
}
330
1A
100
AcDbPlotSettings
  1

  2
none_device
  4

  6

 40
0.0
 41
0.0
 42
0.0
 43
0.0
 44
0.0
 45
0.0
 46
0.0
 47
0.0
 48
0.0
 49
0.0
140
0.0
141
0.0
142
1.0
143
1.0
 70
   688
 72
     0
 73
     0
 74
     5
  7

 75
    16
 76
     0
 77
     2
 78
   300
147
1.0
148
0.0
149
0.0
100
AcDbLayout
  1
Layout2
 70
     1
 71
     2
 10
0.0
 20
0.0
 11
0.0
 21
0.0
 12
0.0
 22
0.0
 32
0.0
 14
0.0
 24
0.0
 34
0.0
 15
0.0
 25
0.0
 35
0.0
146
0.0
 13
0.0
 23
0.0
 33
0.0
 16
1.0
 26
0.0
 36
0.0
 17
0.0
 27
1.0
 37
0.0
 76
     0
330
23
  0
LAYOUT
  5
22
102
{ACAD_REACTORS
330
1A
102
}
330
1A
100
AcDbPlotSettings
  1

  2
none_device
  4

  6

 40
0.0
 41
0.0
 42
0.0
 43
0.0
 44
0.0
 45
0.0
 46
0.0
 47
0.0
 48
0.0
 49
0.0
140
0.0
141
0.0
142
1.0
143
1.0
 70
  1712
 72
     0
 73
     0
 74
     0
  7

 75
     0
 76
     0
 77
     2
 78
   300
147
1.0
148
0.0
149
0.0
100
AcDbLayout
  1
Model
 70
     1
 71
     0
 10
0.0
 20
0.0
 11
12.0
 21
9.0
 12
0.0
 22
0.0
 32
0.0
 14
1.000000000000000E+20
 24
1.000000000000000E+20
 34
1.000000000000000E+20
 15
-1.000000000000000E+20
 25
-1.000000000000000E+20
 35
-1.000000000000000E+20
146
0.0
 13
0.0
 23
0.0
 33
0.0
 16
1.0
 26
0.0
 36
0.0
 17
0.0
 27
1.0
 37
0.0
 76
     0
330
1F
331
29
  0
MLINESTYLE
  5
18
102
{ACAD_REACTORS
330
17
102
}
330
17
100
AcDbMlineStyle
  2
Standard
 70
     0
  3

 62
   256
 51
90.0
 52
90.0
 71
     2
 49
0.5
 62
   256
  6
BYLAYER
 49
-0.5
 62
   256
  6
BYLAYER
  0
ACDBPLACEHOLDER
  5
F
102
{ACAD_REACTORS
330
E
102
}
330
E
  0
VISUALSTYLE
  5
2F
102
{ACAD_REACTORS
330
2A
102
}
330
2A
100
AcDbVisualStyle
  2
2dWireframe
 70
     4
 71
     0
 72
     2
 73
     0
 90
        0
 40
-0.6
 41
-30.0
 62
     5
 63
     7
421
 16777215
 74
     1
 91
        4
 64
     7
 65
   257
 75
     1
175
     1
 42
1.0
 92
        0
 66
   257
 43
1.0
 76
     1
 77
     6
 78
     2
 67
     7
 79
     5
170
     0
171
     0
290
     0
174
     0
 93
        1
 44
0.0
173
     0
291
     0
 45
0.0
1001
ACAD
1000
AcDbSavedByObjectVersion
1070
     0
  0
VISUALSTYLE
  5
31
102
{ACAD_REACTORS
330
2A
102
}
330
2A
100
AcDbVisualStyle
  2
3D Hidden
 70
     6
 71
     1
 72
     2
 73
     2
 90
        0
 40
-0.6
 41
-30.0
 62
     5
 63
     7
421
 16777215
 74
     2
 91
        2
 64
     7
 65
   257
 75
     2
175
     1
 42
40.0
 92
        0
 66
   257
 43
1.0
 76
     1
 77
     6
 78
     2
 67
     7
 79
     3
170
     0
171
     0
290
     0
174
     0
 93
        1
 44
0.0
173
     0
291
     0
 45
0.0
1001
ACAD
1000
AcDbSavedByObjectVersion
1070
     0
  0
VISUALSTYLE
  5
30
102
{ACAD_REACTORS
330
2A
102
}
330
2A
100
AcDbVisualStyle
  2
3dWireframe
 70
     5
 71
     0
 72
     2
 73
     0
 90
        0
 40
-0.6
 41
-30.0
 62
     5
 63
     7
421
 16777215
 74
     1
 91
        4
 64
     7
 65
   257
 75
     1
175
     1
 42
1.0
 92
        0
 66
   257
 43
1.0
 76
     1
 77
     6
 78
     2
 67
     7
 79
     5
170
     0
171
     0
290
     0
174
     0
 93
        1
 44
0.0
173
     0
291
     0
 45
0.0
1001
ACAD
1000
AcDbSavedByObjectVersion
1070
     0
  0
VISUALSTYLE
  5
32
102
{ACAD_REACTORS
330
2A
102
}
330
2A
100
AcDbVisualStyle
  2
Basic
 70
     7
 71
     1
 72
     0
 73
     1
 90
        0
 40
-0.6
 41
-30.0
 62
     5
 63
     7
421
 16777215
 74
     0
 91
        4
 64
     7
 65
   257
 75
     1
175
     1
 42
1.0
 92
        8
 66
     7
 43
1.0
 76
     1
 77
     6
 78
     2
 67
     7
 79
     5
170
     0
171
     0
290
     0
174
     0
 93
        1
 44
0.0
173
     0
291
     1
 45
0.0
1001
ACAD
1000
AcDbSavedByObjectVersion
1070
     0
  0
VISUALSTYLE
  5
36
102
{ACAD_REACTORS
330
2A
102
}
330
2A
100
AcDbVisualStyle
  2
Brighten
 70
    12
 71
     2
 72
     2
 73
     0
 90
        0
 40
-0.6
 41
-30.0
 62
     5
 63
     7
421
 16777215
 74
     1
 91
        4
 64
     7
 65
   257
 75
     1
175
     1
 42
1.0
 92
        8
 66
     7
 43
1.0
 76
     1
 77
     6
 78
     2
 67
     7
 79
     5
170
     0
171
     0
290
     0
174
     0
 93
        1
 44
50.0
173
     0
291
     1
 45
0.0
1001
ACAD
1000
AcDbSavedByObjectVersion
1070
     0
  0
VISUALSTYLE
  5
3A
102
{ACAD_REACTORS
330
2A
102
}
330
2A
100
AcDbVisualStyle
  2
ColorChange
 70
    16
 71
     2
 72
     2
 73
     3
 90
        0
 40
-0.6
 41
-30.0
 62
     5
 63
     8
421
  8421504
 74
     1
 91
        4
 64
     7
 65
   257
 75
     1
175
     1
 42
1.0
 92
        8
 66
     8
424
  8421504
 43
1.0
 76
     1
 77
     6
 78
     2
 67
     7
 79
     5
170
     0
171
     0
290
     0
174
     0
 93
        1
 44
0.0
173
     0
291
     1
 45
0.0
1001
ACAD
1000
AcDbSavedByObjectVersion
1070
     0
  0
VISUALSTYLE
  5
34
102
{ACAD_REACTORS
330
2A
102
}
330
2A
100
AcDbVisualStyle
  2
Conceptual
 70
     9
 71
     3
 72
     2
 73
     0
 90
        0
 40
-0.6
 41
-30.0
 62
     5
 63
     7
421
 16777215
 74
     2
 91
        2
 64
     7
 65
   257
 75
     1
175
     1
 42
40.0
 92
        8
 66
     7
 43
1.0
 76
     1
 77
     6
 78
     2
 67
     7
 79
     3
170
     0
171
     0
290
     0
174
     0
 93
        1
 44
0.0
173
     0
291
     0
 45
0.0
1001
ACAD
1000
AcDbSavedByObjectVersion
1070
     0
  0
VISUALSTYLE
  5
35
102
{ACAD_REACTORS
330
2A
102
}
330
2A
100
AcDbVisualStyle
  2
Dim
 70
    11
 71
     2
 72
     2
 73
     0
 90
        0
 40
-0.6
 41
-30.0
 62
     5
 63
     7
421
 16777215
 74
     1
 91
        4
 64
     7
 65
   257
 75
     1
175
     1
 42
1.0
 92
        8
 66
     7
 43
1.0
 76
     1
 77
     6
 78
     2
 67
     7
 79
     5
170
     0
171
     0
290
     0
174
     0
 93
        1
 44
-50.0
173
     0
291
     1
 45
0.0
1001
ACAD
1000
AcDbSavedByObjectVersion
1070
     0
  0
VISUALSTYLE
  5
39
102
{ACAD_REACTORS
330
2A
102
}
330
2A
100
AcDbVisualStyle
  2
Facepattern
 70
    15
 71
     2
 72
     2
 73
     0
 90
        0
 40
-0.6
 41
-30.0
 62
     5
 63
     7
421
 16777215
 74
     1
 91
        4
 64
     7
 65
   257
 75
     1
175
     1
 42
1.0
 92
        8
 66
     7
 43
1.0
 76
     1
 77
     6
 78
     2
 67
     7
 79
     5
170
     0
171
     0
290
     0
174
     0
 93
        1
 44
0.0
173
     0
291
     1
 45
0.0
1001
ACAD
1000
AcDbSavedByObjectVersion
1070
     0
  0
VISUALSTYLE
  5
2B
102
{ACAD_REACTORS
330
2A
102
}
330
2A
100
AcDbVisualStyle
  2
Flat
 70
     0
 71
     2
 72
     1
 73
     1
 90
        2
 40
-0.6
 41
30.0
 62
     5
 63
     7
421
 16777215
 74
     0
 91
        4
 64
     7
 65
   257
 75
     1
175
     1
 42
1.0
 92
        8
 66
     7
 43
1.0
 76
     1
 77
     6
 78
     2
 67
     7
 79
     5
170
     0
171
     0
290
     0
174
     0
 93
       13
 44
0.0
173
     0
291
     1
 45
0.0
1001
ACAD
1000
AcDbSavedByObjectVersion
1070
     0
  0
VISUALSTYLE
  5
2C
102
{ACAD_REACTORS
330
2A
102
}
330
2A
100
AcDbVisualStyle
  2
FlatWithEdges
 70
     1
 71
     2
 72
     1
 73
     1
 90
        2
 40
-0.6
 41
30.0
 62
     5
 63
     7
421
 16777215
 74
     1
 91
        4
 64
     7
 65
   257
 75
     1
175
     1
 42
1.0
 92
        0
 66
   257
 43
1.0
 76
     1
 77
     6
 78
     2
 67
     7
 79
     5
170
     0
171
     0
290
     0
174
     0
 93
       13
 44
0.0
173
     0
291
     1
 45
0.0
1001
ACAD
1000
AcDbSavedByObjectVersion
1070
     0
  0
VISUALSTYLE
  5
2D
102
{ACAD_REACTORS
330
2A
102
}
330
2A
100
AcDbVisualStyle
  2
Gouraud
 70
     2
 71
     2
 72
     2
 73
     1
 90
        2
 40
-0.6
 41
30.0
 62
     5
 63
     7
421
 16777215
 74
     0
 91
        4
 64
     7
 65
   257
 75
     1
175
     1
 42
1.0
 92
        0
 66
     7
 43
1.0
 76
     1
 77
     6
 78
     2
 67
     7
 79
     5
170
     0
171
     0
290
     0
174
     0
 93
       13
 44
0.0
173
     0
291
     1
 45
0.0
1001
ACAD
1000
AcDbSavedByObjectVersion
1070
     0
  0
VISUALSTYLE
  5
2E
102
{ACAD_REACTORS
330
2A
102
}
330
2A
100
AcDbVisualStyle
  2
GouraudWithEdges
 70
     3
 71
     2
 72
     2
 73
     1
 90
        2
 40
-0.6
 41
30.0
 62
     5
 63
     7
421
 16777215
 74
     1
 91
        4
 64
     7
 65
   257
 75
     1
175
     1
 42
1.0
 92
        0
 66
   257
 43
1.0
 76
     1
 77
     6
 78
     2
 67
     7
 79
     5
170
     0
171
     0
290
     0
174
     0
 93
       13
 44
0.0
173
     0
291
     1
 45
0.0
1001
ACAD
1000
AcDbSavedByObjectVersion
1070
     0
  0
VISUALSTYLE
  5
38
102
{ACAD_REACTORS
330
2A
102
}
330
2A
100
AcDbVisualStyle
  2
Linepattern
 70
    14
 71
     2
 72
     2
 73
     0
 90
        0
 40
-0.6
 41
-30.0
 62
     5
 63
     7
421
 16777215
 74
     1
 91
        4
 64
     7
 65
   257
 75
     7
175
     7
 42
1.0
 92
        8
 66
     7
 43
1.0
 76
     1
 77
     6
 78
     2
 67
     7
 79
     5
170
     0
171
     0
290
     0
174
     0
 93
        1
 44
0.0
173
     0
291
     1
 45
0.0
1001
ACAD
1000
AcDbSavedByObjectVersion
1070
     0
  0
VISUALSTYLE
  5
33
102
{ACAD_REACTORS
330
2A
102
}
330
2A
100
AcDbVisualStyle
  2
Realistic
 70
     8
 71
     2
 72
     2
 73
     0
 90
        0
 40
-0.6
 41
-30.0
 62
     5
 63
     7
421
 16777215
 74
     1
 91
        0
 64
     7
 65
   257
 75
     1
175
     1
 42
1.0
 92
        8
 66
     8
424
  7895160
 43
1.0
 76
     1
 77
     6
 78
     2
 67
     7
 79
     5
170
     0
171
     0
290
     0
174
     0
 93
       13
 44
0.0
173
     0
291
     0
 45
0.0
1001
ACAD
1000
AcDbSavedByObjectVersion
1070
     0
  0
VISUALSTYLE
  5
37
102
{ACAD_REACTORS
330
2A
102
}
330
2A
100
AcDbVisualStyle
  2
Thicken
 70
    13
 71
     2
 72
     2
 73
     0
 90
        0
 40
-0.6
 41
-30.0
 62
     5
 63
     7
421
 16777215
 74
     1
 91
        4
 64
     7
 65
   257
 75
     1
175
     1
 42
1.0
 92
       12
 66
     7
 43
1.0
 76
     1
 77
     6
 78
     2
 67
     7
 79
     5
170
     0
171
     0
290
     0
174
     0
 93
        1
 44
0.0
173
     0
291
     1
 45
0.0
1001
ACAD
1000
AcDbSavedByObjectVersion
1070
     0
  0
ENDSEC
  0
EOF
